Song name
# A B C D E F G H I J K L M N O P Q R S T U V W X Y Z

Osvajaci - Gde Da Pobegnem tab

Pesma pocinje klavijaturama koje sviraju kao neki hor otprilike ovako:
 rif 1
 E|----------------------|---------------------|
 H|----------------------|-------4-5-----5~----|
 G|-4~-4-5---4---4-------|-4-5-7-----4---------|
 D|--------7---5---7-----|-------------7-------|
 A|------------------7~--|---------------------|
 E|----------------------|---------------------|

 A onda ulece gitara:
 rif 2                    rif 3
 E|----------------------|---------------------|
 H|-/5-------------------|---------------------|
 G|----7-5-------4-5-----|-------5-4-----------|
 D|----------4-5-----5---|-5-4-5-----5-4-5-4---|
 A|--------7-----------7-|---------------------|
 E|----------------------|---------------------|
                          \----ovaj deo x3----/
   \------a onda ceo ovaj deo dva puta-------/
    \---------pa onda samo rif 2------------/

    
 Pratnja za ovaj deo (rif 2 i rif 3) je:

 A|-/7-5-3-------2-3-2---| pa onda Em C Em
 E|--------0-2-3-------0-|

 Em     D      G       Am         Em
 Nocima luduje votka u mojim venama.
 Sta me to sludjuje, sta je to bilo u nama?
 Moram da izgubim, pa tada da se zamislim.
 Em       D        G        Am            G
 Glavu da razbijem, pa onda tek da razmislim.

 Koga da prevarim
 C
 da te zaboravim
 G                       D
 kad zrtve sve vec dobro znam

 refren:
 Em        C           D
 Gde, kazi gde da pobegnem
     H           C
 Koji trag da dotaknem
     G        D        Em
 Kada setim se da volim te.
 Sto trazim usne nervozne
 kao zrele jagode
 kada setim se da volim te.

 rif 3 x3
 rif 2 x1

 Satima, danima, iste me slike progone.
 Hladan zid i tvoj glas jos bude stare nagone
 Moram da izgubim, pa tada da se zamislim
 Glavu da razbijem, pa onda tek da razmislim.

 Koga da prevarim
 da te zaboravim
 kad zrtve sve vec dobro znam

 Gde, kazi gde da pobegnem
 Koji trag da dotaknem
 Kada setim se da volim te.
 Sto trazim usne nervozne
 kao zrele jagode
 kada setim se da volim te.

 Solo: pratnja je kao za refren

 Gde, kazi gde da pobegnem
 Koji trag da dotaknem
 Kada setim se da volim te.
 Sto trazim usne nervozne
 kao zrele jagode
 kada setim se da volim te.
Tap to rate this tab
# A B C D E F G H I J K L M N O P Q R S T U V W X Y Z