Guitaretab - guitar tabs
Song name
# A B C D E F G H I J K L M N O P Q R S T U V W X Y Z

Osvajaci - S Kim Cekas Dan tab

Uvod i strofa:
   Am                       G\Am  
e|-------0---0------0-----|------0---0-------0--------|
H|-------1-----3-1----3-1-|------1-----3-1-----3--1---|
G|-------2----------------|------2--------------------|
D|-------2----------------|------2--------------------|
A|-0----------------------|---------------------------|
E|------------------------|-3-------------------------|
[ Tab from: http://www.guitaretab.com/o/osvajaci/96262.html ]
   C            G             F  Am        Am7
e|------0--0---------3--3---------------|------0------|
H|------1--1---------0--0-----1--1----1-|--------1----|
G|------0--0---------0--0-----2--2----2-|----------0--|
D|---2---------------0--0-----3--2----2-|----2--------|
A|-3--------------2-----------3--0----0-|--0----------|
E|--------------3-----------------------|-------------|

Topli trag na usnama
Miris blag u grudima
Sve me na tebe podseca

Nocas iz nistavila
Opet krece lavina
Srce to predoseca

Dm    Am          G        Am
  Oooooo, sneg mi donosi zlo
Dm    Am          C        G
  Oooooo, zar sam kriv ja za to

C           G
 Poslednji dah bi da dam,
C         G
 Samo da mogu da znam
Am        F      G 
 Kome sad dises u dlan
E(7)           Am   G
 S' kim cekas dan

Sam sam i hvata me strah
A s' neba beli ce prah 
Sakriti tragove sve
Da ne nadjem te

Neka me svi ostave
Nek' me svi zaborave
Sve bi ja to preboleo

Ali necu nikada
Sjaj iz tvoga pogleda
Samo tebe sam voleo
Related for S Kim Cekas Dan tab
Advertisement will be closed in 10 seconds