Song name
# A B C D E F G H I J K L M N O P Q R S T U V W X Y Z

Osvajaci - Pronadji Me tab

Uvod (klavijatura uredjena za gitaru)
  E -------------------------------6-6-6----------------------|
  H ---10-10-10----8--8--8--8--8---8-8-8---10-10-10-----------|
  G ---10-10-10----9--9--9--9--9---9-9-9---10-10-10-----------|
  D ---10-10-10---10-10-10-10-10-----------12-12-12-----------|
  A ----------------------------------------------------------|
  E ----------------------------------------------------------|
                                      Klaviatura svira ovu pozdinu
  E ----------------------------------------------------------|
  H ---10-10-10----8--8--8--8--8--8--8--8--10-----------------|
  G ---10-10-10----9--9--9--9--9--9--9--9--10-----------------|
  D ---10-10-10---10-10-10-10-10-10-10-10--12-----------------|
  A ----------------------------------------------------------|
  E ----------------------------------------------------------|

  Kada klaviatura zavrsi prvi krug sviranja onda se ubacuje gitara 2

  E ---------------|---------------|<--------------|
  H ---------------|---------------|               |
  G ---------------|---------------|ponoviti 2x    |
  D ---7--5--3-----|---7--5--5--7--|posle prvog    |
  A ---5--3--1--3--|---5--3--3--5--|odsviranog puta|
  E ------------1--|---------------|krece solo     |     
                                                   | Svira se kao
  treci put                                        | pozadina
                                                   | za uvodni solo
  E ---------------|----------------------|        |
  H ---------------|----------------------|        |
  G ---------------|----------------------|        |
  D ---7--5--3-----|---7--5--5--7---7--5--|        | 
  A ---5--3--1--3--|---5--3--3--5---5--3--|        | 
  E ------------1--|----------------------|<-------|

  Uvodni Solo
  gitara 1
  E ---------------------------10------------------------------
  H ---13^13----------10----10----10--13-----------------------
  G ---------10-12~10----12~-------------12~10-12-10-----------
  D -------------------------------------------------12-12-----
  A -----------------------------------------------------------
  E -----------------------------------------------------------

  ------------------------------------------10---------------------------------
  --------------------------13-----------10----10--13-------------------------- 
  ----------------------12^^^^^^12-10-12~-------------12~10-12-10-------10-9---
  ----------------------------------------------------------------12-12--------
  --------8-10-8-10/12---------------------------------------------------------
  ---8/10----------------------------------------------------------------------
  
  Pred Strofa
  E ---------------------|<--------|        	 
  H ---------------------|         |	 
  G ---------------------|3x       |
  D ----------------3----|         |	 
  A ---5~-------3-----5--|         |		   
  E ------5-3-4---5------|         | 
                         |
  cetvrti put            |Ponoviti 2x
                         |
  E ---------------------|         | 
  H ---------------------|         |
  G ---------------------|         |
  D ---------------------|         |
  A -------3-------------|         |
  E ---4-5---3-5-1-------|<--------|

  Strofa 1
  E ---------------------|       	 
  H ---------------------|         	 
  G ---------------------|3x       
  D ----------------3----|strofa se svira malo prigusenije   	   	 
  A ---5~-------3-----5--|sa naglasenjem prvog tona         		   
  E ------5-3-4---5------|
  Vreme za tebe ne radi...
  
  cetvrti put
  E -----------------|---------|          
  H -----------------|---------|   
  G -----------------|---------|	   
  D -----------------|--5------|	   
  A -------3---------|--3--7---|         
  E ---4-5---3-5-1---|-----5---|
		    ja znam...	

  Prelaz 1(u strofu 2)
  E --------------------------------------|
  H --------------------------------------|	
  G --------------------------------------|
  D ----------------3---------------------|
  A ---5~-------3-----5------3------------|
  E ------5-3-4---5------4-5---3-5-1------|

  Strofa 2
  E -----------------------------------------------------------------------------------|
  H -----------------------------------------------------------------------------------|
  G -----------------------------------------------------------------------------------|
  D ---7-----7-----7-----8-----8-----8-----9-----9-----9-----8-----8-----8-7--5--------|
  A ---5-5-5-5-5-5-5-5-5-5-5-5-5-5-5-5-5-5-5-5-5-5-5-5-5-5-5-5-5-5-5-5-5-5-5--3--7-----|
  E -----------------------------------------------------------------------------5-----|
     Neka se kletve izbrisu...                          i mi nekad smo voleli 

  Prelaz 2(u pred refren)
  E ----------------------------------------|
  H ----------------------------------------|
  G ----------------------------------------|
  D ----------------3--------2-3---2--------|
  A ---5~-------3-----5--3/5-----5---3------|
  E ------5-3-4---5-------------------------|

  Pred Refren
  E ----------------------------------------------------------------|
  H ----------------------------------------------------------------|
  G ---3---------------------------3--7---------------------------7-|
  D ---3---3-----3-------3---3-----3--7---7-----7-------7---7-----7-|
  A ---1-1-1-1-1-1-1-1-1-1-1-1-1-1-1--5-5-5-5-5-5-5-5-5-5-5-5-5-5-5-|
  E ----------------------------------------------------------------|
        A kad te predju...                                        

  E---------------------------------|
  H---------------------------------|
  G-3---------------------------3---|
  D-3---3-----3-------3---3-----3--7|
  A-1-1-1-1-1-1-1-1-1-1-1-1-1-1-1--7|
  E--------------------------------5|
                                Pronadji me


  Refren
  E ---------------------------------------|    ------------------------------------------|
  H ---------------------------------------|    ------------------------------------------|
  G ---------------------------------------|    ---7--7-5-3----------------------------5--|
  D ---7---------3-----------------3-------|2x  ---7--7-5-3---3-----3---------3-----3--5--|
  A ---7-7/3-----3-----3-----3-----3-------|    ---5--5-3-1-1-1-1-1-1---------3-----3--3--|
  E ---5-5/1-1-1-1-1-1-1-1-1-1-1-1-1---0-1-|    --------------------------1-1-1-1-1-1-----|
	          Kada prodju... 		   Kad slome te... 	       Pronadji me 
  
  Drugi put
  E -----------------------------------|    ----------------------------------------------|
  H -----------------------------------|    ----------------------------------------------|
  G -----------------------------------|    ---7--7-5-3-----------2----------------5------|
  D -------3-----------------3---------|2x  ---7--7-5-3---3-----3---3-----3-----3--5------|
  A -------3-----3-----3-----3---------|    ---5--5-3-1-1-1-1-1-1---------3-----3--3------|
  E ---1-1-1-1-1-1-1-1-1-1-1-1---0-1---|    --------------------------1-1-1-1-1-1---------|
	    Kada hladne...		       Kad prodje sve...           Pronadji me
 
  Strofa 2
  (pelaz)
  E ---------------------------------------------------------------------------|
  H ---------------------------------------------------------------------------|
  G ---------------------------------------------------------------------------|
  D ---7-----7-----7-----8-----8-----8-----9-----9-----9-----8-----8-----8-----|
  A ---5-5-5-5-5-5-5-5-5-5-5-5-5-5-5-5-5-5-5-5-5-5-5-5-5-5-5-5-5-5-5-5-5-5-----|
  E ---------------------------------------------------------------------------|
 Pronadji meee
    
  Strofa 2
  E -----------------------------------------------------------------------------------|
  H -----------------------------------------------------------------------------------|
  G -----------------------------------------------------------------------------------|
  D ---7-----7-----7-----8-----8-----8-----9-----9-----9-----8-----8-----8-7--5--------|
  A ---5-5-5-5-5-5-5-5-5-5-5-5-5-5-5-5-5-5-5-5-5-5-5-5-5-5-5-5-5-5-5-5-5-5-5--3--7-----|
  E -----------------------------------------------------------------------------5-----|
       Neka se kletve izbrisu...                                   i mi nekad smo voleli
  
  Prelaz 2(u pred refren)
  E ----------------------------------------|
  H ----------------------------------------|
  G ----------------------------------------|
  D ----------------3--------2-3---2--------|
  A ---5~-------3-----5--3/5-----5---3------|
  E ------5-3-4---5-------------------------|

  Pred Refren:
  E ----------------------------------------------------------------|
  H ----------------------------------------------------------------|
  G ---3---------------------------3--7---------------------------7-|
  D ---3---3-----3-------3---3-----3--7---7-----7-------7---7-----7-|
  A ---1-1-1-1-1-1-1-1-1-1-1-1-1-1-1--5-5-5-5-5-5-5-5-5-5-5-5-5-5-5-|
  E ----------------------------------------------------------------|
        A kad te predju...                                        

  E---------------------------------|
  H---------------------------------|
  G-3---------------------------3---|
  D-3---3-----3-------3---3-----3--7|
  A-1-1-1-1-1-1-1-1-1-1-1-1-1-1-1--7|
  E--------------------------------5|
                                Pronadji me

  Refren:
  E ---------------------------------------|    -------------------------------------------|
  H ---------------------------------------|    -------------------------------------------|
  G ---------------------------------------|    ---7--7-5-3----------------------------5---|
  D ---7---------3-----------------3-------|2x  ---7--7-5-3---3-----3---------3-----3--5---|
  A ---7-7/3-----3-----3-----3-----3-------|    ---5--5-3-1-1-1-1-1-1---------3-----3--3---|
  E ---5-5/1-1-1-1-1-1-1-1-1-1-1-1-1---0-1-|    --------------------------1-1-1-1-1-1------|
	          Kada prodju... 		   Kad slome te... 	       Pronadji me 

  Drugi put
  E -----------------------------------|    -----------------------------------------------|
  H -----------------------------------|    -----------------------------------------------|
  G -----------------------------------|    ---7--7-5-3-----------2----------------5-------|
  D -------3-----------------3---------|2x  ---7--7-5-3---3-----3---3-----3-----3--5--7-/-7|
  A -------3-----3-----3-----3---------|    ---5--5-3-1-1-1-1-1-1---------3-----3--3--7-/-7|
  E ---1-1-1-1-1-1-1-1-1-1-1-1---0-1---|    --------------------------1-1-1-1-1-1-----5-/-5|
	    Kada hladne...		       Kad prodje sve...           Pronadji me 

  Solo
  (solo prati ista pozadina kao i uvodni solo)
  E ---------------------------------10--------------------------------
  H --/13^13----------10----------10----10--13-------------------------
  G ---------10-12~10----12-10-12~-------------12~10-12~10-------------
  D -------------------------------------------------------12-12-------
  A -------------------------------------------------------------------
  E -------------------------------------------------------------------
  
  -----------------------------------------10-----------------------------
  ---------------------------------------------------13~15^15-13--15------
  ---------------------------12~10-10~--12^^^^12-10~------------14--------
  ------------------------------------------------------------------------
  -------------8^10^8^10/12-----------------------------------------------
  --/8^10^8^10------------------------------------------------------------
  
  Refren
  E ---------------------------------|    -----------------------------------------------|
  H ---------------------------------|    -----------------------------------------------|
  G ---------------------------------|    ---7--7-5-3----------------------------5-------|
  D -------3-----------------3-------|2x  ---7--7-5-3---3-----3---------3-----3--5-------|
  A -------3-----3-----3-----3-------|    ---5--5-3-1-1-1-1-1-1---------3-----3--3-------|
  E ---1-1-1-1-1-1-1-1-1-1-1-1---0-1-|    --------------------------1-1-1-1-1-1----------|
	    Kada prodju... 		     Kad slome te... 	         Pronadji me

  Drugi put                                                                  (ponavljanje)
  E ---------------------------------|    -----------------------------------------------|
  H ---------------------------------|    -----------------------------------------------|
  G ---------------------------------|    ---7--7-5-3-----------2----------------5-------|
  D -------3-----------------3-------|2x  ---7--7-5-3---3-----3---3-----3-----3--5-------|
  A -------3-----3-----3-----3-------|    ---5--5-3-1-1-1-1-1-1---------3-----3--3-------|
  E ---1-1-1-1-1-1-1-1-1-1-1-1---0-1-|    --------------------------1-1-1-1-1-1----------|
	    Kada hladne...		     Kad prodje sve...           Pronadji me 
Tap to rate this tab
# A B C D E F G H I J K L M N O P Q R S T U V W X Y Z