Song name
# A B C D E F G H I J K L M N O P Q R S T U V W X Y Z

Oswaldo Montenegro - Menestrel Urbano tab

Menestrel Urbano - by Sйrgio Chiavazzoli & Oswaldo Montenegro

tab by Julio Auto (July 2007)

e|--8--8--10--10--12--12--12--12---8--8--10--10--12--12--12--12--12--|
B|-10-----12------13--------------10-----12------13------------------|
G|-------------------------------------------------------------------|
D|-------------------------------------------------------------------|
A|-------------------------------------------------------------------|
E|-------------------------------------------------------------------|

                                                  N.H.
e|--8--10--8----------8--13--8--10----8-----------12--|
B|------------12--10-----------------------12~----12--|
G|----------------------------------------------------|
D|----------------------------------------------------|
A|----------------------------------------------------|
E|----------------------------------------------------|

e|--12--10--8-10-8----------------------8-------8-10----8-10-12--|
B|-----------------12-10~----10-9-10-12---10-12------12----------|
G|---------------------------------------------------------------|
D|---------------------------------------------------------------|
A|---------------------------------------------------------------|
E|---------------------------------------------------------------|

e|--8-10-8------------------------------------------------------------------|
B|---------12-10-12-10-8----------------------------------------------------|
G|-----------------------10~--------10--------------------------------------|
D|-------------------------------10----10-12-----10-12-10-9----10~--9----9--|
A|----------------------------12--------------12------------12--------12----|
E|--------------------------------------------------------------------------|

e|-----------------------------------------------------------------------|
B|-----------------------------------------------------------------------|
G|---------------------------------------10-9-10~--11-10-11~--12-11-12~--|
D|--------------------------5--10-9-10~----------------------------------|
A|----------5-----5-7---5-7----------------------------------------------|
E|--8-5-7-8---7-8-----8--------------------------------------------------|

e|---------------------------------------------------|
B|--13-12-13~--12-10---------------------------------|
G|-------------------12-10-9-------------------------|
D|---------------------------12-10-9-----------------|
A|-----------------------------------12-10-8---------|
E|-------------------------------------------12-10~--|

e|------------------------------------|
B|------------------------------------|
G|------------------------------------|
D|-------9-10-12~--10-9-10~--9----9~--|
A|----12-----------------------12-----|
E|-12---------------------------------|

                                                                         N.H.
e|------------------------------------------------------------12--10-15------|
B|--------------------------------------------12-12-12--10-12------------12--|
G|----------------------12-11-12~--11----------------------------------------|
D|--10-9-10~--9-----------------------14-12~---------------------------------|
A|--------------12-10~-------------------------------------------------------|
E|---------------------------------------------------------------------------|

e|--------------------------------------------|
B|--------------------------------------------|
G|----------------------12-11-12~--11---------|
D|--10-9-10~--9-----------------------14-12~--|
A|--------------12-10~------------------------|
E|--------------------------------------------|

e|---------------------------------------------|
B|-12-12-12-12-10-10-10-10-8-8-8-8-6-6-6-6-5~--|
G|---------------------------------------------|
D|---------------------------------------------|
A|---------------------------------------------|
E|---------------------------------------------|

                              N.H.                          N.H.
e|--8--8--10--10--12--12--12--12--8--8--10--10--12--12--12--12--|
B|-10-----12------13-------------10-----12------13--------------|
G|--------------------------------------------------------------|
D|--------------------------------------------------------------|
A|--------------------------------------------------------------|
E|--------------------------------------------------------------|

                    (ritardando...................
e|--8-10-8-----------------------------------------|
B|---------12-10-12-10-8---------------------------|
G|-----------------------10~----------10-----------|
D|--------------------------------10------10--12~--|
A|----------------------------12-------------------|
E|-------------------------------------------------|

   ........................................)
e|---------------7-----8-----10-------12-12-----|
B|----------------------------------------------|
G|----------------------------------------------|
D|-----10~-------9-9--10-10--12-12----14--------|
A|--9---------9---------------------------------|
E|----------------------------------------------|

Tap to rate this tab
# A B C D E F G H I J K L M N O P Q R S T U V W X Y Z