Song name
# A B C D E F G H I J K L M N O P Q R S T U V W X Y Z

Otep - Warhead tab

Band:otep
Song:warhead
Album: House of Secrets
Tuning: Drop C (DAFCGC)
Tabber: Brandon Wall (ze_carvingheadz@yahoo.com)


|-------------------------------------------|
|-------------------------------------------|
|-------------------------------------------|
|-------------------------------------------|
|----------------3333----------------3333---|
|-0000-3333-2222------0000-3333-2222--------|

|-------------------------------------------|
|-------------------------------------------|
|-------------------------------------------|
|-------------------------------------------|
|----------------2222----------------2222---|
|-0000-3333-2222------0000-3333-2222--------|

|-------------------------------------------|
|-------------------------------------------|
|-------------------------------------------|
|-------------------------------------------|
|----------------3333----------------3333---|
|-0000-3333-2222------0000-3333-2222--------|

|-------------------------------------------|
|-------------------------------------------|
|-------------------------------------------|
|-------------------------------------------|
|----------------2222----------------2222---|
|-0000-3333-2222------0000-3333-2222--------|

|-----------|
|-----------|
|-----------|
|-0-3-2-3---| X2
|-0-3-2-3---|
|-0-3-2-----|

|---------------|
|---------------|
|---------------|
|-00-33-22-33---| X2
|-00-33-22-33---|
|-00-33-22------|
  .. .. .. ..

|-----------|
|-----------|
|-----------|
|-0-3-2-3---| X2
|-0-3-2-3---|
|-0-3-2-----|

|---------------|
|---------------|
|---------------|
|-00-33-22-33---| X2
|-00-33-22-33---|
|-00-33-22------|
  .. .. .. ..

|---------------|
|---------------|
|---------------|
|-00-33-22-33---| X2
|-00-33-22-33---|
|-00-33-22------|
  .. .. .. 

|---------------|
|---------------|
|---------------|
|-00-33-22-22---| X2
|-00-33-22-22---|
|-00-33-22------|
  .. .. .. 

|---------------|
|---------------|
|---------------|
|-00-33-22-33---| X2
|-00-33-22-33---|
|-00-33-22------|
  .. .. .. 

|---------------|
|---------------|
|---------------|
|-00-33-22-22---| X2
|-00-33-22-22---|
|-00-33-22------|
  .. .. .. 

|-------------------------------------------|
|-------------------------------------------|
|-------------------------------------------|
|-------------------------------------------|
|----------------3333----------------3333---|
|-0000-3333-2222------0000-3333-2222--------|

|-------------------------------------------|
|-------------------------------------------|
|-------------------------------------------|
|-------------------------------------------|
|----------------2222----------------2222---|
|-0000-3333-2222------0000-3333-2222--------|

|-------------------------------------------|
|-------------------------------------------|
|-------------------------------------------|
|-------------------------------------------|
|----------------3333----------------3333---|
|-0000-3333-2222------0000-3333-2222--------|

|-------------------------------------------|
|-------------------------------------------|
|-------------------------------------------|
|-------------------------------------------|
|----------------2222----------------2222---|
|-0000-3333-2222------0000-3333-2222--------|

|-----------------|
|-----------------|
|-----------------|
|-2-1-0--1-0-1----| X2
|-2-1-0--1-0-1----|
|-2-1-0--1-0-1----|
  . . .    .

|-------------------------------------------|
|-------------------------------------------|
|-------------------------------------------|
|-------------------------------------------|
|----------------3333----------------3333---|
|-0000-3333-2222------0000-3333-2222--------|

|-------------------------------------------|
|-------------------------------------------|
|-------------------------------------------|
|-------------------------------------------|
|----------------2222----------------2222---|
|-0000-3333-2222------0000-3333-2222--------|

|-------------------------------------------|
|-------------------------------------------|
|-------------------------------------------|
|-------------------------------------------|
|----------------3333----------------3333---|
|-0000-3333-2222------0000-3333-2222--------|

|-------------------------------------------|
|-------------------------------------------|
|-------------------------------------------|
|-------------------------------------------|
|----------------2222----------------2222---|
|-0000-3333-2222------0000-3333-2222--------|

|-----------------|
|-----------------|
|-----------------|
|-2-1-0--1-0-1----| X2
|-2-1-0--1-0-1----|
|-2-1-0--1-0-1----|
  . . .    .

|---------------------|
|---------------------|
|---------------------|
|-2-1-6-5-------------| X4
|-2-1-6-5--00000000---|
|-2-1-6-5--00000000---|
           ........

|-----------|
|-----------|
|-----------|
|-1-2-1-2---|
|-1-2-1-2---|
|-1-2-1-2---|

|-------------------------------------------|
|-------------------------------------------|
|-------------------------------------------|
|-------------------------------------------|
|----------------3333----------------3333---|
|-0000-3333-2222------0000-3333-2222--------|

|-------------------------------------------|
|-------------------------------------------|
|-------------------------------------------|
|-------------------------------------------|
|----------------2222----------------2222---|
|-0000-3333-2222------0000-3333-2222--------|

|-------------------------------------------|
|-------------------------------------------|
|-------------------------------------------|
|-------------------------------------------|
|----------------3333----------------3333---|
|-0000-3333-2222------0000-3333-2222--------|

|-------------------------------------------|
|-------------------------------------------|
|-------------------------------------------|
|-------------------------------------------|
|----------------2222----------------2222---|
|-0000-3333-2222------0000-3333-2222--------|

|-----------|
|-----------|
|-----------|
|-0-3-2-3---| X2
|-0-3-2-3---|
|-0-3-2-----|

|---------------|
|---------------|
|---------------|
|-00-33-22-33---| X2
|-00-33-22-33---|
|-00-33-22------|
  .. .. .. ..

|-----------|
|-----------|
|-----------|
|-0-3-2-3---| X2
|-0-3-2-3---|
|-0-3-2-----|

|---------------|
|---------------|
|---------------|
|-00-33-22-33---| X2
|-00-33-22-33---|
|-00-33-22------|
  .. .. .. ..

|---------------|
|---------------|
|---------------|
|-00-33-22-33---| X2
|-00-33-22-33---|
|-00-33-22------|
  .. .. .. 

|---------------|
|---------------|
|---------------|
|-00-33-22-22---| X2
|-00-33-22-22---|
|-00-33-22------|
  .. .. .. 

|---------------|
|---------------|
|---------------|
|-00-33-22-33---| X2
|-00-33-22-33---|
|-00-33-22------|
  .. .. .. 

|---------------|
|---------------|
|---------------|
|-00-33-22-22---| X2
|-00-33-22-22---|
|-00-33-22------|
  .. .. .. 

|-------------------------------------------|
|-------------------------------------------|
|-------------------------------------------|
|-------------------------------------------|
|----------------3333----------------3333---|
|-0000-3333-2222------0000-3333-2222--------|

|-----------------|
|-----------------|
|-----------------|
|-2-1-0--1-0-1----| X2
|-2-1-0--1-0-1----|
|-2-1-0--1-0-1----|
  . . .    .

|---------------------|
|---------------------|
|---------------------|
|-2-1-6-5-------------| X4
|-2-1-6-5--00000000---|
|-2-1-6-5--00000000---|
           ........

|-----------|
|-----------|
|-----------|
|-1-2-1-2---|
|-1-2-1-2---|
|-1-2-1-2---|

|-------------------------------------------|
|-------------------------------------------|
|-------------------------------------------|
|-------------------------------------------|
|----------------3333----------------3333---|
|-0000-3333-2222------0000-3333-2222--------|

|-------------------------------------------|
|-------------------------------------------|
|-------------------------------------------|
|-------------------------------------------|
|----------------2222----------------2222---|
|-0000-3333-2222------0000-3333-2222--------|

|-------------------------------------------|
|-------------------------------------------|
|-------------------------------------------|
|-------------------------------------------|
|----------------3333----------------3333---|
|-0000-3333-2222------0000-3333-2222--------|

|-------------------------------------------|
|-------------------------------------------|
|-------------------------------------------|
|-------------------------------------------|
|----------------2222----------------2222---|
|-0000-3333-2222------0000-3333-2222--------|

|---------------------|
|---------------------|
|---------------------|
|-2-1-0-1-------------| X4
|-2-1-0-1--00000000---|
|-2-1-0-1--00000000---|
           ........

|---------------------|
|---------------------|
|---------------------|
|-2-1-6-5-------------| X4
|-2-1-6-5--00000000---|
|-2-1-6-5--00000000---|
           ........


|------------------------|
|------------------------|
|------------------------|
|-22-11-66-55------------| X2
|-22-11-66-55--00000000--|
|-22-11-66-55--00000000--|
  .. .. .. ..  ........

|---------------------|
|---------------------|
|---------------------|
|-2-1-6-5-------------| X4
|-2-1-6-5--00000000---|
|-2-1-6-5--00000000---|
           ........

|---------------------|
|---------------------|
|---------------------|
|-2-1-0-1-------------| X4
|-2-1-0-1--00000000---|
|-2-1-0-1--00000000---|
           ........

|---------------------|
|---------------------|
|---------------------|
|-2-1-6-5-------------| 
|-2-1-6-5--00000000---|
|-2-1-6-5--00000000---|
           ........

|-------------------------------|
|-------------------------------|
|-------------------------------|
|-------------------------------| X5
|-------------------------------|
|-6-5-3-6-1-6-0-1-3-6--000-00---|
                       ... ..

|------|
|------|
|------|
|-1-2--| X4
|-1-2--|
|-1-2--|

|----|
|----|
|----|
|-0--|
|-0--|
|-0--|
Tap to rate this tab
 
# A B C D E F G H I J K L M N O P Q R S T U V W X Y Z