Song name
# A B C D E F G H I J K L M N O P Q R S T U V W X Y Z

Otep - Possession tab

Intro:
24x
E||-----------||
B||-----------||
G||-----------||
D||-----------||
A||--2^-2^2^--||
D||--2^-2^2^--||

E||----------------------------|------------------------------------|
B||----------------------------|------------------------------------|
G||----------------------------|------------------------------------|
D||----------------------------|------------------------------------|
A||--0h2-2-2-2-2-2-2--0h2-6-5--|--0h2-2-2-2-2-2-2--0h2-2-2-0h2-2-2--|
D||--0h2-2-2-2-2-2-2--0h2-6-5--|--0h2-2-2-2-2-2-2--0h2-2-2-0h2-2-2--|

E||----------------------------|--------------------------------<5>-|
B||----------------------------|------------------------------<5>---|
G||----------------------------|----------------------------<5>-----|
D||----------------------------|------------------------------------|
A||--0h2-2-2-2-2-2-2--0h2-6-5--|--0h2-2-2-2-2-2-2--0h2-2-2-0--------|
D||--0h2-2-2-2-2-2-2--0h2-6-5--|--0h2-2-2-2-2-2-2--0h2-2-2-0--------|

E||------------------|------------------------------------||
B||------------------|------------------------------------||
G||------------------|------------------------------------||
D||--0----2--6--5----|------------------------------------||
A||--0----2--6--5----|--0h2-2-2-2-2-2-2--0h2-2-2-0h2-2-2--||
D||--0----2--6--5----|--0h2-2-2-2-2-2-2--0h2-2-2-0h2-2-2--||

Verse:
Part 01:
E||---------------------------------|---------------------------------|
B||---------------------------------|---------------------------------|
G||---------------------------------|---------------------------------|
D||--0000---------------------------|--0000---------------------------|
A||--0000--6-6-6-6\5-5-5-5\0-0-0-0--|--0000--7-7-7-7\5-5-5-5\1-1-1-1--|
D||--0000---------------------------|--0000---------------------------|

E||---------------------------------|---------------------------------|
B||---------------------------------|---------------------------------|
G||---------------------------------|---------------------------------|
D||--0000---------------------------|--0000---------------------------|
A||--0000--6-6-6-6\5-5-5-5\0-0-0-0--|--0000--7-7-7-7\5-5-5-5----------|
D||--0000---------------------------|--0000-------------------0h3^^^--|

E||---------------------------------|---------------------------------|
B||---------------------------------|---------------------------------|
G||--------8-8-8-8\7-7-7-7----------|--------9-9-9-9\7-7-7-7----------|
D||--0000------------------7-7-7-7--|--0000------------------8-8-8-8--|
A||--0000---------------------------|--0000---------------------------|
D||--0000---------------------------|--0000---------------------------|

E||---------------------------------|--------0------------------------|
B||---------------------------------|--------0----let-ring------------|
G||--------8-8-8-8\7-7-7-7----------|--------0------------------------|
D||--0000------------------7-7-7-7--|--0000--0------------------------|
A||--0000---------------------------|--0000---------------------------|
D||--0000---------------------------|--0000---------------------------|

Part 02:
E||---------------------------------||
B||---------------------------------||
G||---------------------------------|| 4x
D||--0000--6p5p0-6p5p0-6p5p0--3-----|| 
A||--0000--6p5p0-6p5p0-6p5p0--3-----||
D||--0000--6p5p0-6p5p0-6p5p0--3-----||


Chorus:
Part 01:
E||-----------------------------|------------------------------------||
B||-----------------------------|------------------------------------||
G||--7-7-7-7-7-7-7-7--8--13-12--|------------------------------------|| 2x
D||--x-x-x-x-x-x-x-x--x---x--x--|------------------------------------||
A||--5-5-5-5-5-5-5-5--6--11-10--|------------------------------------||
D||-----------------------------|--0h2-2-2-2-2-2-2--0h2-2-2-0h2-2-2--||

Part 02:
E||-----------------------------|------------------------------------||
B||-----------------------------|------------------------------------||
G||-----------------------------|------------------------------------|| 2x
D||--0h2-2-2-2-2-2-2--0h2--5-6--|--0h2-2-2-2-2-2-2--0h2-2-2-0h2-2-2--||
A||--0h2-2-2-2-2-2-2--0h2--5-6--|--0h2-2-2-2-2-2-2--0h2-2-2-0h2-2-2--||
D||--0h2-2-2-2-2-2-2--0h2--5-6--|--0h2-2-2-2-2-2-2--0h2-2-2-0h2-2-2--||

Repeat verse Part 02,
Then full verse with both parts.

Middle section:
Part 01:
E||-------------------------------||
B||-------------------------------||
G||-------------------------------|| 8x
D||-------------------------------||
A||--0-0-0-0--1-0-0-0--0--0--1-0--||
D||--0-0-0-0--1-0-0-0--0--0--1-0--||

Part 02:
E||-------------------------------||
B||-------------------------------||
G||-------------------------------|| 8x
D||--1p0-0-0--6p0-0-0--0--0--1-0--||
A||--1p0-0-0--6p0-0-0--0--0--1-0--||
D||--1p0-0-0--6p0-0-0--0--0--1-0--||

Fill 01:
E||-----------------------||
B||-----------------------||
G||-----------------------||
D||--5-4-3-4-2-3-1-2-1-0--||
A||--5-4-3-4-2-3-1-2-1-0--||
D||--5-4-3-4-2-3-1-2-1-0--||

Play verse part 02 - 3x,
Then this...

Fill 02:
E||-------------||
B||-------------||
G||-------------||
D||--6--5--3----||
A||--6--5--3----||
D||--6--5--3----||

Part 03:
E||---------------------------------------||
B||---------------------------------------||
G||---------------------------------------|| 4x
D||--0-0-0-0-0-0-0-0--2p0-0-0-2p0-0-0--2--||
A||--0-0-0-0-0-0-0-0--2p0-0-0-2p0-0-0--2--||
D||--0-0-0-0-0-0-0-0--2p0-0-0-2p0-0-0--2--||

Part 04:
E||---------------------------------------||
B||---------------------------------------||
G||---------------------------------------|| 4x
D||--0-0-0-0-0-0-0-0--6-------7--------9--||
A||--0-0-0-0-0-0-0-0--6-------7--------9--||
D||--0-0-0-0-0-0-0-0--6-------7--------9--||




Fill 03:
E||-------------||
B||-------------||
G||-------------||
D||--6\5\4\(3)--||
A||--6\5\4\(3)--||
D||--6\5\4\(3)--||

Outro/Breakdown:
Part 01:
E||--------------------------------||
B||--------------------------------||
G||--------------------------------||
D||--------------------------------||
A||--0-0--3-3--2-2-2-2-2--3-3-3-0--||
D||--0-0--3-3--2-2-2-2-2--3-3-3-0--||

Part 02:
E||--------------------------------||
B||--------------------------------||
G||--------------------------------||
D||--------------------------------||
A||--0-0--3-3--2-2-2-2-2--6-6\5-5--||
D||--0-0--3-3--2-2-2-2-2--6-6\5-5--||

Then play Part 01 - 3x,
Play part 02 once,
Play part 01 once,
Then this...

Fill 04:
E||-----------||
B||-----------||
G||-----------||
D||--2-1-0-1--||
A||--2-1-0-1--||
D||--2-1-0-1--||

Then play both 01 and 02 sequencially
2x.

End chords:
E||----------||
B||----------||
G||----------|| Let Ring...
D||--0--0----|| 
A||--0--0----||
D||--0--0----||

End
Tap to rate this tab
# A B C D E F G H I J K L M N O P Q R S T U V W X Y Z