Song name
# A B C D E F G H I J K L M N O P Q R S T U V W X Y Z

Otep - Fists Fall tab

Drop A#(Bb) tuning
You'll have to listen to the song to know how many times to repeat each part.

Main Riff
C ---------------------------------------------------------------------------|
G#---------------------------------------------------------------------------|
D#---------------------------------------------------------------------------|
A#-3---3-1-3-1---3---3-1-3-1-4-----------------------------------------------|
F -3---3-1-3-1---3---3-1-3-1-4-----------------------------------------------|
A#-3---3-1-3-1---3---3-1-3-1-4-----------------------------------------------|

Verse A
C ---------------------------------------------------------------------------|
G#---------------------------------------------------------------------------|
D#---------------------------------------------------------------------------|
A#---------------------------------------------------------------------------|
F ---------------------------------------------------------------------------|
A#-000-000-0--3h4---000-000-0--3h4--3h4--------------------------------------|

Verse B
C ----------------------------------------------------------------------------|
G#----------------------------------------------------------------------------|
D#----------------------------------------------------------------------------|
A#----------------------------------------------------------------------------|
F -8-7-5--8-7-5--8-7-5--8-7-5--8-7-5--8-7-5--7-7-7-7-7-7----------------------|
A#-8-7-5--8-7-5--8-7-5--8-7-5--8-7-5--8-7-5--7-7-7-7-7-7----------------------|
  |-------palm-mute-----------------------------------------------------------|

Transition
C ---------------------------------------------------------------------------|
G#---------------------------------------------------------------------------|
D#-----------------------7--9-10---------------------------------------------|
A#-7h8---7-10-8-7h8h7----x--x-x----10--8--7-8-7------------------------------|
F -----------------------5--7-8----x---x--x-x-x------------------------------|
A#---------------------------------10--8--7-8-7----10\-----------------------|

Repeat all three

(If you're using the tabs for rhythm everything after this point should be played twice 
as fast as the first half)

Bridge A
C ---------------------------------------------------------------------------|
G#---------------------------------------------------------------------------|
D#---------------------------------------------------------------------------|
A#-------1------------1-3-3-4------------------------------------------------|
F -------1---------4--1-3-3-4------------------------------------------------|
A#-3h4~--1----3h4~-4--1-3-3-4------------------------------------------------|
                     |-repeat 2 extra times before Bridge B-|

Bridge B
C ---------------------------------------------------------------------------|
G#---------------------------------------------------------------------------|
D#---------------------------------------------------------------------------|
A#---------------------------------------------------------------------------|
F -8--x-x-8--x-x--0-5-7-8--0-6-8-9--8--x-x-8--x-x--0-5-7-8--0-7-9-10---------|
A#-8--x-x-8--x-x--------------------8--x-x-8--x-x----------------------------|

C ---------------------------------------------------------------------------|
G#---------------------------------------------------------------------------|
D#---------------------------------------------------------------------------|
A#---------------------------------------------------------------------------|
F -8--x-x-8--x-x--0-5-7-8--0-6-8-9--0-4-6-7--0-3-5-6--0-2-4-5--0-1-3-4-------|
A#-8--x-x-8--x-x-------------------------------------------------------------|

Repeat Main Riff

Outro
C ---------------------------------------------------------------------------|
G#---------------------------------------------------------------------------|
D#---------------------------------------------------------------------------|
A#-3--3-3--1--3--1-----3--3-3--1--3--1--4~-----------------------------------|
F -3--3-3--1--3--1-----3--3-3--1--3--1--4~-----------------------------------|
A#-3--3-3--1--3--1-----3--3-3--1--3--1--4~-----------------------------------|
Tap to rate this tab
 
# A B C D E F G H I J K L M N O P Q R S T U V W X Y Z