Song name
# A B C D E F G H I J K L M N O P Q R S T U V W X Y Z

Otep - Nein tab

-----------------------------------------------------------------------------
			    Nein by OTEP
-----------------------------------------------------------------------------
Tabbed by: Michelle
Email: guitarloser101@hotmail.com

Tuning:CGCFAD (1 whole step down)

| /  slide up
| \  slide down
| h  hammer-on
| p  pull-off
| ~  vibrato
| +  harmonic
| x  Mute note

e|-12--------12-------12-------12-------12--------------------------|
B|----16--------16-------16-------16-------16-----------------------|
G|-------15--------15-------15-------14-------14--------------------|   1x
D|------------------------------------------------------------------|
A|------------------------------------------------------------------|
E|------------------------------------------------------------------|


e|-12--------12-------12-------12-------12-------12-----------------|
B|----16--------16-------16-------16-------16-------16--------------|
G|-------15--------15-------15-------15-------14-------14-----------|
D|------------------------------------------------------------------|
A|------------------------------------------------------------------|
E|------------------------------------------------------------------|
         ^repeat as much as need until power chords come in^

e|------------------------------------------------------------------|
B|------------------------------------------------------------------|
G|------------------------------------------------------------------|
D|-1--0-0---1--0-0---0-1/5------------------------------------------| 4x
A|-1--0-0---1--0-0---0-1/5------------------------------------------|
E|-1--0-0---1--0-0---0-1/5------------------------------------------|


I'm not sure how to play the second part of the power chords but as soon as i figure
it out i will fix it, if anyone has corrections or suggestions please email me
Tap to rate this tab
# A B C D E F G H I J K L M N O P Q R S T U V W X Y Z