Song name
# A B C D E F G H I J K L M N O P Q R S T U V W X Y Z

Otep - Shattered Pieces tab

-----------------------------------------------------------------------------
Shattered pieces - Otep
-----------------------------------------------------------------------------
Tabbed by: Roy-H
Email: roy_hotmail.com

Tuning: Standard

Note: Must be the easiest song in the world... Only one "riff"...Sounds best on
the upper mic... with maybe a tiny bit of reverb.

   Last time you don't include the 11 on B string                        X 22
e|--------------------------------------------------------------------------|
B|-----13----11-------------------------------------------------------------|
G|--12----11----------------------------------------------------------------|
D|--------------------------------------------------------------------------|
A|--------------------------------------------------------------------------|
E|--------------------------------------------------------------------------|

In the middle of the song there is a break, with no guitar. After you play:
Do not include 11 on B string the last time                              x 10
e|--------------------------------------------------------------------------|
B|-----13----11-------------------------------------------------------------|
G|--12----11----------------------------------------------------------------|
D|--------------------------------------------------------------------------|
A|--------------------------------------------------------------------------|
E|--------------------------------------------------------------------------|
Tap to rate this tab
 
# A B C D E F G H I J K L M N O P Q R S T U V W X Y Z