Song name
# A B C D E F G H I J K L M N O P Q R S T U V W X Y Z

Otep - My Confession tab

-------------------------------------------------------------------------------
			     My Confession - OTEP
-------------------------------------------------------------------------------
Tabbed by: Dustyattic


Tuning:
                            1,2,3,  4
|-------------------------|-------|----------|------------------------------|
|-------------------------|-------|-----0----|------------------------------|
|-------------------------|--0----|---0--0---|------------------------------|
|-----6-------6-------6---|6---6--|-6-----6--|------------------------------|
|---5---5---5---5---5---5-|-----5-|--------5-|------------------------------|
|-0-------0-------0-------|-------|----------|------------------------------|
                                 1,2,3    4
|---------------------|--------|--------|-~bend~----------------------------|
|---------------------|-----3--|4-3---3-|-4-4-4-3~--------------------------|
|---------------------|---1---1|----1---|-----------------------------------|
|---6-6-6---6-6-5/6---|-0------|--------|-----------------------------------|
|--5-5-5-5-5-5-5------|--------|--------|-----------------------------------|
|-0-------0-----------|--------|--------|-----------------------------------|
                             1st      2nd time
|-------------------------|---------|----------------------------------------|
|-----2-3-----1-0---------|---------|----------------------------------------|
|----------------------2-3|---------|----------------------------------------|
|---0-------0-------0-----|---0-3-2-|---0-3--2---1~---Effect/Dive-w-bar------|
|-------------------------|---------|----------------------------------------|
|-0-------0-------0-------|-0-------|-0--------------------------------------|

Tuning is not standard, it's dropped something or other, lower than C.
On the first part, top (fattest) and next string are lightly muted, the 3rd is not.
Use these tabs as a guide and figure out when to switch parts. The distorted part is 
the first part only with distortion, but there may be subtle differences.

May not be perfect, but its an alternate way from the other tab for this song.

| /  slide up
| \  slide down
| h  hammer-on
| p  pull-off
| ~  vibrato
| +  harmonic
| x  Mute note
===============================================================================
Tap to rate this tab
 
# A B C D E F G H I J K L M N O P Q R S T U V W X Y Z