Song name
# A B C D E F G H I J K L M N O P Q R S T U V W X Y Z

Otep - God Is A Gun tab

Help us improve GuitareTab! Take a short survey!
God Is A Gun - Otep

Intro/Verse
d|---------------------------------------|
a|---------------------------------------|
f|---------------------------------------|
c|--4--4--4---4--4--4--------------------|
g|--4--4--4---4--4--4--4--4--4--5--5--6--|
C|--4--4--4---4--4--4--------------------|
Pm  .  .  .   .  .  .  .  .  .  .  .  .

c|-----------------------------------------|
a|-----------------------------------------|
f|-----------------------------------------|
c|--4--0--4--4--4--0--0--0--0--1--1--1--1--|
g|--4--0--4--4--4--0--0--0--0--1--1--1--1--|
C|--4--0--4--4--4--0--0--0--0--1--1--1--1--|

Chorus
c|--------------|
a|--------------|
f|--5--3--6--8--|
c|--5--3--6--8--|
g|--3--1--4--6--|
C|--------------|


Related for God Is A Gun tab