Song name
# A B C D E F G H I J K L M N O P Q R S T U V W X Y Z

Other Lives - Dust Bowl Iii tab

h=hammer on

    A#                                         Dm
e|----------------------------------------------1------1---1---1--|
B|----3---3-----3---3-----3---3---3---3-----3---3------3---3---3--|
G|--------------------0h2---0-------0---0h2-----2--0h2------------|
D|----------0h3---3-------------3-------------0----------0---3----|
A|--1---1---------------------------------------------------------|
E|----------------------------------------------------------------|

        C
e|----1---0---0-----0---0---0---0---0---0---0----0----------------|
B|----3---1---1-----1---1---1---1---1---1---1----0----0---0---0---|
D|--2---0----------------------------------------0----0---0---0---|
G|--------------0h2---2---3---2---0-------0------0----------------|
A|----------3-------------------------3----------2--3---2---0-----|
E|--------------------------------------------3-----------------3-|

-repeat
Tap to rate this tab
# A B C D E F G H I J K L M N O P Q R S T U V W X Y Z