Song name
# A B C D E F G H I J K L M N O P Q R S T U V W X Y Z

Otis Redding - Sittin On The Dock Of The Bay tab

---------------------------------------------------------------------
Sittin’ on the Dock of the Bay – Otis Redding
---------------------------------------------------------------------
Tabbed by: Thom_Alexander
Email: thomasditchburn@hotmail.co.uk

Tuning: Standard

When I play it I like to add a lil’ bit of percussion to the song, makes it
feel more authentic, so when you see 'x' smack your thumb off the low E to
create a little snare sound, I’m sure it sounds okay without it though,
feel free to experiment ;D

+Personally, not to sure about the bridge but it works for me...enjoy

Intro

e|----------------------------|
B|----------------------------|
G|----------------------------|
D|----------------------------| x2
A|------3s5-3s5------3s5-3s5--|
E|--3--3---------3--3---------|

Verse 1

Sitting in the morning sun,    I'll be sitting when the evening comes
Watching the ships roll in,    And I watch 'em roll away again

e|----33---333-----77---777---|--8-8----8-8--7-5-5--555----------|
B|----33---333-----77---777---|--8-8----8-8--7-5-5--555----------|
G|----44-—-444-----88-—-888---|--9-9----9-9--8-6-6-—666----------|
D|----55-—-555-----99---999---|--1010-—-1010-9-7-7-—777----------| x2
A|----55-—-555-----99---999---|--1010-—-1010-9-7-7-—777----------|
E|----33x—-333x----77x--777x--|--8-8-x—-8-8--7-5-5x-555x---------|
      DU   UDU     DU   UDU      D U    U D  D D U  UDU

Chorus

Sitting on the dock of the bay, Watching the tide roll away
e|----33---333-----77---777---|--8-8----8-8--7-5-5--555----------|
B|----33---333-----77---777---|--8-8----8-8--7-5-5--555----------|
G|----44-—-444-----88-—-888---|--9-9----9-9--8-6-6-—666----------|
D|----55-—-555-----99---999---|--1010-—-1010-9-7-7-—777----------|
A|----55-—-555-----99---999---|--1010-—-1010-9-7-7-—777----------|
E|----33x—-333x----77x--777x--|--8-8-x—-8-8--7-5-5x-555x---------|
      DU   UDU     DU   UDU      D U    U D  D D U  UDU

I'm just sitting on the dock of the bay, Wasting time
e|----33---333-----77---777---|--33---333----00---000------------|
B|----33---333-----77---777---|--33---333----00---000------------|
G|----44-—-444-----88-—-888---|--44-—-444----11-—-111------------|
D|----55-—-555-----99---999---|--55-—-555----22-—-222------------|
A|----55-—-555-----99---999---|--55-—-555----22---222------------|
E|----33x—-333x----77x--777---|--33x—-333x---00x—-000x-----------|
      DU   UDU     DU   UDU      DU   UDU    DU   UDU

Verse 2

I left my home in Georgia,      Headed for the 'Frisco bay
Cause I had nothin to live for, And look like nothing's gonna come my way

e|----33---333-----77---777---|--8-8----8-8--7-5-5--555----------|
B|----33---333-----77---777---|--8-8----8-8--7-5-5--555----------|
G|----44-—-444-----88-—-888---|--9-9----9-9--8-6-6-—666----------|
D|----55-—-555-----99---999---|--1010-—-1010-9-7-7-—777----------| x2
A|----55-—-555-----99---999---|--1010-—-1010-9-7-7-—777----------|
E|----33x—-333x----77x--777x--|--8-8-x—-8-8--7-5-5x-555x---------|
      DU   UDU     DU   UDU      D U    U D  D D U  UDU

Chorus

Sitting on the dock of the bay, Watching the tide roll away
e|----33---333-----77---777---|--8-8----8-8--7-5-5--555----------|
B|----33---333-----77---777---|--8-8----8-8--7-5-5--555----------|
G|----44-—-444-----88-—-888---|--9-9----9-9--8-6-6-—666----------|
D|----55-—-555-----99---999---|--1010-—-1010-9-7-7-—777----------|
A|----55-—-555-----99---999---|--1010-—-1010-9-7-7-—777----------|
E|----33x—-333x----77x--777x--|--8-8-x—-8-8--7-5-5x-555x---------|
      DU   UDU     DU   UDU      D U    U D  D D U  UDU

I'm just sitting on the dock of the bay, Wasting time
e|----33---333-----77---777---|--33---333----00---000------------|
B|----33---333-----77---777---|--33---333----00---000------------|
G|----44-—-444-----88-—-888---|--44-—-444----11-—-111------------|
D|----55-—-555-----99---999---|--55-—-555----22-—-222------------|
A|----55-—-555-----99---999---|--55-—-555----22---222------------|
E|----33x—-333x----77x--777---|--33x—-333x---00x—-000x-----------|
      DU   UDU     DU   UDU      DU   UDU    DU   UDU

Bridge

Look like nothing's gonna change,
Everything still remains the same,
I can't do what ten people tell me to do,
So I guess I'll remain the same,

e|----33---333-----777---8-8-8----|
B|----33---333-----777---8-8-8----|
G|----44-—-444-----888-—-9-9-9----|
D|----55-—-555-----999-—-101010---|x4
A|----55-—-555-----999--—101010---|
E|----33x—-333x----777x—-8-8-8-x--|
      DU   UDU     UDU   U D U 


Chorus

Sitting on the dock of the bay, Watching the tide roll away
e|----33---333-----77---777---|--8-8----8-8--7-5-5--555----------|
B|----33---333-----77---777---|--8-8----8-8--7-5-5--555----------|
G|----44-—-444-----88-—-888---|--9-9----9-9--8-6-6-—666----------|
D|----55-—-555-----99---999---|--1010-—-1010-9-7-7-—777----------|
A|----55-—-555-----99---999---|--1010-—-1010-9-7-7-—777----------|
E|----33x—-333x----77x--777x--|--8-8-x—-8-8--7-5-5x-555x---------|
      DU   UDU     DU   UDU      D U    U D  D D U  UDU

I'm just sitting on the dock of the bay, Wasting time
e|----33---333-----77---777---|--33---333----00---000------------|
B|----33---333-----77---777---|--33---333----00---000------------|
G|----44-—-444-----88-—-888---|--44-—-444----11-—-111------------|
D|----55-—-555-----99---999---|--55-—-555----22-—-222------------|
A|----55-—-555-----99---999---|--55-—-555----22---222------------|
E|----33x—-333x----77x--777---|--33x—-333x---00x—-000x-----------|
      DU   UDU     DU   UDU      DU   UDU    DU   UDU


Verse 3

Sittin here resting my bones,      And this loneliness won't leave me alone
It's two thousand miles I roamed,  Just to make this dock my home

e|----33---333-----77---777---|--8-8----8-8--7-5-5--555----------|
B|----33---333-----77---777---|--8-8----8-8--7-5-5--555----------|
G|----44-—-444-----88-—-888---|--9-9----9-9--8-6-6-—666----------|
D|----55-—-555-----99---999---|--1010-—-1010-9-7-7-—777----------| x2
A|----55-—-555-----99---999---|--1010-—-1010-9-7-7-—777----------|
E|----33x—-333x----77x--777x--|--8-8-x—-8-8--7-5-5x-555x---------|
      DU   UDU     DU   UDU      D U    U D  D D U  UDU

Chorus

Sitting on the dock of the bay, Watching the tide roll away
e|----33---333-----77---777---|--8-8----8-8--7-5-5--555----------|
B|----33---333-----77---777---|--8-8----8-8--7-5-5--555----------|
G|----44-—-444-----88-—-888---|--9-9----9-9--8-6-6-—666----------|
D|----55-—-555-----99---999---|--1010-—-1010-9-7-7-—777----------|
A|----55-—-555-----99---999---|--1010-—-1010-9-7-7-—777----------|
E|----33x—-333x----77x--777x--|--8-8-x—-8-8--7-5-5x-555x---------|
      DU   UDU     DU   UDU      D U    U D  D D U  UDU

I'm just sitting on the dock of the bay, Wasting time
e|----33---333-----77---777---|--33---333----00---000------------|
B|----33---333-----77---777---|--33---333----00---000------------|
G|----44-—-444-----88-—-888---|--44-—-444----11-—-111------------|
D|----55-—-555-----99---999---|--55-—-555----22-—-222------------|
A|----55-—-555-----99---999---|--55-—-555----22---222------------|
E|----33x—-333x----77x--777---|--33x—-333x---00x—-000x-----------|
      DU   UDU     DU   UDU      DU   UDU    DU   UDU



Outro (Whistle ;D)

e|----33---333-----77---777---|--8-8----8-8--7-5-5--555----------|
B|----33---333-----77---777---|--8-8----8-8--7-5-5--555----------|
G|----44-—-444-----88-—-888---|--9-9----9-9--8-6-6-—666----------|
D|----55-—-555-----99---999---|--1010-—-1010-9-7-7-—777----------| x2
A|----55-—-555-----99---999---|--1010-—-1010-9-7-7-—777----------|
E|----33x—-333x----77x--777x--|--8-8-x—-8-8--7-5-5x-555x---------|
      DU   UDU     DU   UDU      D U    U D  D D U  UDU

Thanx message me with any feedback ;D

 
| /  slide up
| \  slide down
| h  hammer-on
| p  pull-off
| ~  vibrato
| +  harmonic
| x  Mute note
=====================================================================
Tap to rate this tab
 
# A B C D E F G H I J K L M N O P Q R S T U V W X Y Z