Song name
# A B C D E F G H I J K L M N O P Q R S T U V W X Y Z

Otto Knows - Million Voices tab

-------------------------------------------------------------------------------
                             Million Voices - Otto Knows
-------------------------------------------------------------------------------
Tabbed by: NugatiixHD
E-mail: NugatiixHD@gmail.com

Tuning:
INTRO: Play this 2 times.
e|---------------------------------------------------------------------------|
B|---------------------------------------------------------------------------|
G|--8-8-8-8--12--10----------------------------------------------------------|
D|---------------------------------------------------------------------------|
A|---------------------------------------------------------------------------|
E|---------------------------------------------------------------------------|
Then the 3rd time play this, Then all over again frtom the beginning.
e|---------------------------------------------------------------------------|
B|---------------------------------------------------------------------------|
G|--8-8-8-8--12--10----------------------------------------------------------|
D|------------------10-------------------------------------------------------|
A|---------------------------------------------------------------------------|
E|---------------------------------------------------------------------------|
Then the main riff:
e|---------------------------------------------------------------------------|
B|---------------------------------------------------------------------------|
G|-8-8-8-8-8--12-12-12-12-12-------------------------------------------------|
D|----------------------------13-13-13-13-13--10-10--13-13-13-13-------------|
A|---------------------------------------------------------------------------|
E|---------------------------------------------------------------------------|
Tap to rate this tab
 
# A B C D E F G H I J K L M N O P Q R S T U V W X Y Z