Song name
# A B C D E F G H I J K L M N O P Q R S T U V W X Y Z

Otto Waalkes - Wir Haben Grund Zum Feiern tab

Interpret: Otto Waalkes
Titel: Hymne an den Alkohol

Note: Play the whole song (except the intro) Palm Muted (Gedämpft).

-----------------
  Playing style
-----------------
Chorus and Verse:
    G                   D                   E                   C
e|---------------------------------------------------------------------------------|
B|---------------------------------------------------------------------------------|
G|---------------------------------------------------------------------------------|
D|----------------------7-7-7-7-7-7-7-7-7---9-9-9-9-9-9-9-9-9---5-5-5-5-5-5-5-5-5--|
A|--5-5-5-5-5-5-5-5-5---5-5-5-5-5-5-5-5-5---7-7-7-7-7-7-7-7-7---3-3-3-3-3-3-3-3-3--|
E|--3-3-3-3-3-3-3-3-3--------------------------------------------------------------|

Bridge:
    D                   A                   E                   C
e|---------------------------------------------------------------------------------|
B|---------------------------------------------------------------------------------|
G|---------------------------------------------------------------------------------|
D|--5-5-5-5-5-5-5-5-5-----------------------9-9-9-9-9-9-9-9-9---7-7-7-7-7-7-7-7-7--|
A|--3-3-3-3-3-3-3-3-3---7-7-7-7-7-7-7-7-7---7-7-7-7-7-7-7-7-7---5-5-5-5-5-5-5-5-5--|
E|----------------------5-5-5-5-5-5-5-5-5------------------------------------------|


-----------------
    S o n g
-----------------

Intro (picked) + melody whisteling:
G  |  D  |  E  D  |  C  D  | G

Vers 1:
G (PM till the end)            D
Farber Krönung, Deinhart Lila, Grappa, Calvados, Tequilla.
E                            C
Asbach Uralt, Spätburgunder, Vermouth und Pernod

G                         D
Williams Birne, Dujardin, Hennessy, Remy Martin
E                        C
Fernet Branca Underberg, Portwein und Bordeaux

G                            D
Johnny Walker, Jägermeister, Amaretto, Kellergeister,
E                             C break (just one C)
Scharlachberg und Doppelkorn, und das ganze jetzt nochmal von vorn:


Chorus:
G                   D              E                          C
Wir haben Grund zum Feiern, keiner kann mehr laufen, doch wir könn' noch saufen
G                   D               E              C
Wir haben Grund zum Feiern, ist uns auch speiübel, bring den nächsten Kübel


Bridge:
C                         A
Bommerlunder Valentines,  heute ist uns alles eins,
E                              D            
Birnenschnapps und Apfelwein,  wir tun wirklich alles rein


Bridge Ending: 
D        D       
DxxDxxxx DxxDxxxx (only play first and the fourth strike, mute the rest)


Vers 2:
G                               D
Whiskey süß und Whiskey sauer,  Hauptsache wir werden blauer,
E                               C
Ramazotti, razeputz und ne Budel Rum

G                             D
Gin, Campari, Grand Marnier,  endlich tut der Schädel weh,
E                              C
Mit Doornkaat und Mariacron,   ins Delirium

G                          D
Klosterfrau Melissengeist, oder wie der Stoff sonst heißt,
E                             C
Kölnischwasser, Pitralon, wir rülpsen nicht wir kotzen schon!


Chorus:
G                   D       
Wir haben Grund zum Reiern, 
E                                       C
zerfrisst uns auch die Därme schenkt es uns doch Wärme,
G                   D             
Wir haben Grund zum Feiern, 
E                          C             rit.                           
unser letzter Wille immer mehr Promille, Promille, Promille, 
C ...                 G
mille, mille....     (Ending)




originally tabbed by Lukas Frauenlob, 9. 8. 2007
retabbed and corrected by Alexander Pacha, 15.01.2012
Tap to rate this tab
# A B C D E F G H I J K L M N O P Q R S T U V W X Y Z