Song name
# A B C D E F G H I J K L M N O P Q R S T U V W X Y Z

Otto Waalkes - Wir Haben Grund Zum Feiern tab

Interpret: Otto Waalkes
Titel: Hymne an den Alkohol


PM= Palm Muted  (Gedämpft)
U = Up Stroke   (Aufschlag)
D = Down Stroke (Abschlag)


    G                   D                   E                   C
      pm    pm    pm      pm    pm    pm      pm    pm    pm      pm    pm    pm
e|---------------------------------------------------------------------------------|
B|---------------------------------------------------------------------------------|
G|----------------------7-------------------9-------------------5------------------|
D|--5-------------------7-7-7-7-7-7-7-7-7---9-9-9-9-9-9-9-9-9---5-5-5-5-5-5-5-5-5--|
A|--5-5-5-5-5-5-5-5-5---5-5-5-5-5-5-5-5-5---7-7-7-7-7-7-7-7-7---3-3-3-3-3-3-3-3-3--|
E|--3-3-3-3-3-3-3-3-3--------------------------------------------------------------|

Vers 1:
G                              D
Farber Krönung, Deinhart lila, Grapa Kalpadus Tequilla.
E                            C
Asbach Uralt, Spätburgunder, Vehrmut und Pernot

G                         D
Williams Birne, Dujardin, Hennessy Remy Martin
E                        C
Fernet Branca Underberg, Portwein und Bordeaux

G                            D
Johnny Walker, Jägermeister, Amaretto Kellergeister,
E                             C
Scharlachberg und Doppelkorn, und das ganze jetzt nochmal von vorn:


Refrain:
    D    U D U    U    D    U D U    U    D    U D U    U    D    U D U    U
e|----------------------------------------------------------------------------|
B|----------------------------------------------------------------------------|
G|---------------------7--x-7-7-7--x-7----9--x-9-9-9--x-9----5--x-5-5-5--x-5--|
D|--5--x-5-5-5--x-5----7--x-7-7-7--x-7----9--x-9-9-9--x-9----5--x-5-5-5--x-5--|
A|--5--x-5-5-5--x-5----5--x-5-5-5--x-5----7--x-7-7-7--x-7----3--x-3-3-3--x-3--|
E|--3--x-3-3-3--x-3-----------------------------------------------------------|

G                   D              E                          C
Wir haben Grund zum Feiern, Keiner kann mehr laufen, doch wir könn' noch saufen
G                   D               E              C
Wir haben Grund zum Feiern, Ist uns auch speiübel, bring den nächsten Kübel


Vers 2:
G                         D
Bommerlunder Valentines,  heute ist uns alles eins,
E                              C
Birnenschnapps und Apfelwein,  wir tun wirklich alles rein

Bridge:
C


Vers 3:
G                               D
Whiskey süß und Whiskey sauer,  Hauptsache wir werden blauer,
E                               C
Ramazotti,Razeputz und ne Budel Rum

G                           D
Gin Campari Grand Marnier,  endlich tut der Schädel weh,
E                              C
Mit Dornkat und Mariakron ins Delirium

G                        D
Klosterfraumelissengeist oder wie der Stoff sonst heißt,
E                              C
Kölnischwasser, Pitralon, wir rülpsen nicht wir kotzen schon!


Refrain:
G                   D       E                                       C
Wir haben Grund zum Reiern, zerfrisst uns auch die Därme schenkt es uns doch Wärme,
G                   D       E                          C                                 
                         G...
Wir haben Grund zum Feiern, unser letzter Wille immer mehr Promille, Promille, Promille, 
mille, mille....
Tap to rate this tab
# A B C D E F G H I J K L M N O P Q R S T U V W X Y Z