Song name
# A B C D E F G H I J K L M N O P Q R S T U V W X Y Z

Otx - My Infestation tab

Help us improve GuitareTab! Take a short survey!
This is actually only the intro of the song...Sorry not the whole thing
This was tabbed by Brian Wolfe the guitarist of oTx...So I know its right

| /  slide up
| \  slide down
| h  hammer-on
| p  pull-off
| ~  vibrato
| +  harmonic
| x  Mute note


  INTRO
e|-------------------------------------------------|
B|-------------------------------------------------|
G|-------------------------------------------------|
D|-------------------------------------------------|
A|-----8-7-0------8-7-6-7------8-7-0------8-7------|
E|-0-8--------0-8----------0-8--------0-8-----7-6--|

e|-------------------------------------------------|
B|-------------------------------------------------|
G|-------------------------------------------------|
D|-------------------------------------------------|
A|-----8-7-0------8-7-6-7------8-7-0------8--------|
E|-0-8--------0-8----------0-8--------0-8----------|
Related for My Infestation tab