Song name
# A B C D E F G H I J K L M N O P Q R S T U V W X Y Z

Ou Est Le Swimming Pool - Dance The Way I Feel tab

----------------------------------------------------------------------------
		  Dance the way I feel - Ou Est le swimming pool
----------------------------------------------------------------------------
Tabbed by:JackKeene

Tuning:Standard

e|------------||---------------------|------------------|------------------|
B|------------||---------------------|------------------|------------------|
G|---12-------||--------------11-----|--------------11--|---------12---11--|
D|------------||---12--11--12--------|--12--11--12------|-12--11-----------|
A|------------||---------------------|------------------|------------------|
E|------------||---------------------|------------------|------------------|

e|-------------|---------------------|------------------|-----------------|
B|-------------|---------------------|------------------|-----------------|
G|-------------|---------------11----|------------------|----------11--12-|
D|-12--11--12--|---12--11--12--------|-12--11--12-------|--11--12---------|
A|-------------|---------------------|--------------14--|-----------------|
E|-------------|---------------------|------------------|-----------------|

e|-------------||
B|-------------||
G|-11----------||
D|-----12--11--||
A|-------------||
E|-------------||

http://www.ouestleswimmingpool.com/
Tap to rate this tab
# A B C D E F G H I J K L M N O P Q R S T U V W X Y Z