Song name
# A B C D E F G H I J K L M N O P Q R S T U V W X Y Z

Our Innocence Lost - Belong tab

e----------------------------------------------------|
b----------------------------------------------------|
g----------------------------------------------------|
d-12-12-12-12-12-12-12-9-10-12-12-12-12-12-12-14-14--|
a----------------------------------------------------|
E----------------------------------------------------|

e----------------------------------------------------|
b----------------------------------------------------|
g----------------------------------------------------|
d-16-16-16-16-16-16-16-12-14-16-16-16-16-------------|
a----------------------------------------------------|
E----------------------------------------------------|

(that fast part)
e----------------------12------------15-15-14-14-----|
b-------------12-14-15---15-15-15-15-----------------|
g----11-12-14----------------------------------------|
d-14-------------------------------------------------|
a----------------------------------------------------|
E----------------------------------------------------|

e-------------15-15-14-14-17-12-12-12-12-15-15-14-14-|
b-15-15-15-15----------------------------------------|
g----------------------------------------------------|
d----------------------------------------------------|
a----------------------------------------------------|
E----------------------------------------------------|

e-17-------------------------------------------------|
b----15-15-15-15-15-15-15h17-15~~~-------------------|
g----------------------------------------------------|
d----------------------------------------------------|
a----------------------------------------------------|
E----------------------------------------------------|
Tap to rate this tab
 
# A B C D E F G H I J K L M N O P Q R S T U V W X Y Z