Song name
# A B C D E F G H I J K L M N O P Q R S T U V W X Y Z

Our Lady Peace - Whatever tab

Help us improve GuitareTab! Take a short survey!
This is probobly the best OLP song, and i've seen some bad ways to tab it. The whole E 
harmonic to 10th fret is more of the bass than anything. This is the best way i've found 
play the intro/ pre-verse/ pre-chorus. Im still working on the rest of the song.


(stays at a quarter bend (qb))
E|-----------------------------|------------------------------------|
B|-----------------------------|------------------------------------|
G|---------qb17----------qb17--|-----------qb17----------qb17--qb17-|
D|-----------------------------|------------------------------------|
A|-----------------------------|------------------------------------|
D|-0-0-0-0-------0-0-0-0-------|---0-0-0-0-------0-0-0-0------------|


-----------------------------------|-------------------------------------|
-----------------------------------|-------------------------------------|
----------qb17----------qb17--qb17-|----------qb17----------qb17-xx-qb17-|
--0-0-0-0-------0-0-0-0------------|--0-0-0-0-------0-0-0-0--------------|
--0-0-0-0-------0-0-0-0------------|--0-0-0-0-------0-0-0-0--------------|
--0-0-0-0-------0-0-0-0------------|--0-0-0-0-------0-0-0-0--------------|


-----------------------------------|-----------------------------|
-----------------------------------|-----------------------------|
----------qb17----------qb17--qb17-|----------qb17----------qb17-|
--0-0-0-0-------0-0-0-0------------|--0-0-0-0-------0-0-0-0------|
--0-0-0-0-------0-0-0-0------------|--0-0-0-0-------0-0-0-0------|
--0-0-0-0-------0-0-0-0------------|--0-0-0-0-------0-0-0-0------|

------------------------------|------------------------------|
------------------------------|------------------------------|
----------qb17----------qb17--|-----------qb17----------qb17-|
------------------------------|------------------------------|
------------------------------|------------------------------|
--0-0-0-0-------0-0-0-0-------|---0-0-0-0-------0-0-0-0------|
Related for Whatever tab