Song name
# A B C D E F G H I J K L M N O P Q R S T U V W X Y Z

Our Lady Peace - Where Are You tab

Title: Where Are You
Artist: Our Lady Peace
Tabbed By: _O_L_P_

Standard Tuning: e,B,G,D,A,E

Guitar I (lead): distorted
Guitar II (rhythm): distorted

Intro/verse:
Guitar I
e|------------------------------------------------------------------|
B|------------------------------------------------------------------|
G|------------------------------------------------------------------|
D|------------------------------------------------------------------|
A|-3-3-3-3-3-3-3-3-----------------0-0-0-0-0-0-0-0------------------|
E|-----------------0-0-0-0-0-0-0-0-----------------3-3-3-3-3-3-3-3/-|

e|------------------------------------------------------------------|
B|------------------------------------------------------------------|
G|------------------------------------------------------------------|
D|------------------------------------------------------------------|
A|------------------------------------------------------------------|
E|-6-6-6-6-6-6-6-6-5-5-5-5-5-5-5-5-6-6-6-6-6-6-6-6-5-5-5-5-5-5-5-5--|

Guitar II
e|------------------------------------------------------------------|
B|-5-5-5-5-5-5-5-5-3-3-3-3-3-3-3-3-5-5-5-5-5-5-5-5-6-6-6-6-6-6-6-6--|
G|-5-5-5-5-5-5-5-5-5-5-5-5-5-5-5-5-2-2-2-2-2-2-2-2-0-0-0-0-0-0-0-0--|
D|------------------------------------------------------------------|
A|------------------------------------------------------------------|
E|------------------------------------------------------------------|
 
e|------------------------------------------------------------------|
B|-6-6-6-6-6-6-6-6-8-8-8-8-8-8-8-8-6-6-6-6-6-6-6-6-5-5-5-5-5-5-5-5--|
G|-3-3-3-3-3-3-3-3-5-5-5-5-5-5-5-5-3-3-3-3-3-3-3-3-2-2-2-2-2-2-2-2--|
D|------------------------------------------------------------------|
A|------------------------------------------------------------------|
E|------------------------------------------------------------------|
 
Pre-chorus:
Guitar I
e|-11-11-11/10-10-10-10-10-10-10-10-|
B|----------------------------------|
G|----------------------------------| x2
D|----------------------------------|
A|----------------------------------|
E|----------------------------------|

Guitar II 
e|---
B|---
G|---
D|-8- keep playing til chorus
A|-8-
E|-6-
 
Chorus:
Guitar I
e|------------------------------------------|
B|-10-10-10-10-10-10-11-13-8-8-8-8-8-8-8-10-|
G|------------------------------------------|
D|------------------------------------------|
A|------------------------------------------|
E|------------------------------------------|
                                                        x2
Guitar I cont.
e|-------------------------------------------------|
B|-11-11-11-11-13-13-13-13-15-15-15-15-13-13-13-13-|
G|-------------------------------------------------|
D|-------------------------------------------------|
A|-------------------------------------------------|
E|-------------------------------------------------|

Post-Chorus:
Guitar I 
e|----------------------|
B|-11-11-11-11-11-11-11-|
G|----------------------|
D|----------------------|
A|----------------------|
E|----------------------|

Chorus:
Guitar II
e|-----------------------------------------------------------------|
B|-----------------------------------------------------------------|
G|-----------------5-5-5-5-5-5-5-------------------7-7-7-7-5-5-5-5-|
D|-3-3-3-3-3-3-3-3-5-5-5-5-5-5-5-7-8-8-8-8-8-8-8-8-7-7-7-7-5-5-5-5-| x2
A|-3-3-3-3-3-3-3-3-3-3-3-3-3-3-3-7-8-8-8-8-8-8-8-8-5-5-5-5-3-3-3-3-|
E|-1-1-1-1-1-1-1-1---------------5-6-6-6-6-6-6-6-6-----------------|

Post-Chorus:
Guitar II
e|---------------|
B|---------------|
G|-3-3-3-3-3-3-3-|
D|-3-3-3-3-3-3-3-|
A|-1-1-1-1-1-1-1-|
E|---------------|
 
Intro
Verse
Pre-Chorus
Chorus
Post-Chorus

Bridge:
Guitar I
e|-12-12-12-12-12-12-12-10-13-13-13-13-13-13-13----|
B|----------------------------------------------13-|
G|-------------------------------------------------|
D|-------------------------------------------------|
A|-------------------------------------------------|
E|-------------------------------------------------|
                                                        x3
Guitar I cont.
e|-------------------------13-13-13-13-12-12-12-12-|
B|-15-15-15-15-15-15-15-15-------------------------|
G|-------------------------------------------------|
D|-------------------------------------------------|
A|-------------------------------------------------|
E|-------------------------------------------------|

Guitar II
e|--------------------------------------------------------------------|
B|--------------------------------------------------------------------|
G|-5-5-5-5-5-5-x------------------2--3-3-3-3-3-3-x-2------------------|
D|-5-5-5-5-5-5-x-5--3-3-3-3-3-3-x-3--3-3-3-3-3-3-x-3--7-7-7-7-7-7-7-7-| x3
A|-3-3-3-3-3-3-x-5--3-3-3-3-3-3-x-1--1-1-1-1-1-1-x-1--7-7-7-7-7-7-7-7-|
E|---------------3--1-1-1-1-1-1-x---------------------5-5-5-5-5-5-5-5-|

Pre-chorus
Chorus x3

End with:
Guitar I
e|------|
B|-11~~-|
G|------|
D|------|
A|------|
E|------|

Guitar II
e|------|
B|-3~~--|
G|-3~~--|
D|-3~~--|
A|-1~~--|
E|------|
Tap to rate this tab
 
# A B C D E F G H I J K L M N O P Q R S T U V W X Y Z