Song name
# A B C D E F G H I J K L M N O P Q R S T U V W X Y Z

Our Lady Peace - Supermans Dead tab

#


From st.jean@isys.ca Wed Apr  2 08:47:32 1997
Date: Fri, 21 Mar 97 18:20:44 -0800
From: jared 
To: guitar@olga.net
Subject: (no subject)

band: our lady peace
song: superman's dead
album:clumsy

Intro 1:


|-----------------------------------------------------------
|-----------------------------------------------------------
|-----------------------------------------------------------   x2
|-----------------------------------------------------------
|--9--9--12--12-12-12--7-7-7-7--10-10-10--------------------
|--7--7--10--10-10-10--5-5-5-5--8--8--8---------------------


|-----------------------------------------------------------
|-----------------------------------------------------------
|-----------------------------------------------------------
|-----------------------------------------------------------
|--9--9------12--12-12-12----7-7-7---7---7---7-7------10-10-
|--7--7------10--10-10-10----5-5-5---5---5---5-5------8--8--

  Do you worry that your not liked, how long till you break?
  Your happy cause you smile, but how much can you fake?
  An ordinary boy, an ordinary name, well ordinary's just not good
  not today!

Pre Chorus: 

|--7--7--7--7----10--10--10--10----5--5--5--5------------------
|--7--7--7--7----10--10--10--10----5--5--5--5------------------
|--8--8--8--8----11--11--11--11----6--6--6--6------------------   x2
|--9--9--9--9----12--12--12--12----7--7--7--7------------------
|--9--9--9--9----12--12--12--12----7--7--7--7------------------
|--7--7--7--7----10--10--10--10----5--5--5--5------------------
  ah awoo woo     ah awoo woo       ah awoo woo

Chorus:

|--7--7--7--7----10--10--10--10----5--5--5--5----8--8--8--8----
|--7--7--7--7----10--10--10--10----5--5--5--5----8--8--8--8----
|--8--8--8--8----11--11--11--11----6--6--6--6----9--9--9--9----
|--9--9--9--9----12--12--12--12----7--7--7--7----10-10-10-10---
|--9--9--9--9----12--12--12--12----7--7--7--7----10-10-10-10---
|--7--7--7--7----10--10--10--10----5--5--5--5----8--8--8--8----

1: Why~~~~~~~~~~~~~~~~~~~~~~~~~~~~~ yeah         Su-perman's 
2: Why~~~~~~~~~~~~~~~~~~~~~~~~~~~~~ yeah         is it in my             
3: Why~~~~~~~~~~~~~~~~~~~~~~~~~~~~~ yeah         we'll just laugh

|--7--7--7--7----|
|--7--7--7--7----|
|--8--8--8--8----|
|--9--9--9--9----|
|--9--9--9--9----|
|--7--7--7--7----|                             
1: dead
2: head
3: instead

(Repeat intro 1)

   Are you worried about your faith?
   kneel down and obey
   your happy your in love
   you need someone to hate
   an ordinary girl, an ordinary waist
   well ordinary's just not good,
   not today!

(Repeat chorus with same words)

then do this weird thing

|--3--3--3--3----2--2--2--2----1--1--1--1----0--0--0--0-----------
|--3--3--3--3----2--2--2--2----1--1--1--1----0--0--0--0-----------
|--4--4--4--4----3--3--3--3----2--2--2--2----1--1--1--1-----------  x4
|--5--5--5--5----4--4--4--4----3--3--3--3----2--2--2--2-----------
|--5--5--5--5----4--4--4--4----3--3--3--3----2--2--2--2-----------
|--3--3--3--3----2--2--2--2--- 1--1--1--1----0--0--0--0-----------

do that 4 times while screaming "why" in a really wierd voice then end it 
with this.

|--0-------------|
|--0-------------|
|--2-------------|
|--3-------------|
|--3-------------|
|--0-------------|

Then finish this wicked song off with

|--3--3--3--3----0--0--0--0----0-0----|
|--3--3--3--3----3--3--2--2----0-0----|
|--0--0--0--0----2--2--2--2----0-0----|
|--0--0--0--0----0--0--2--2----2-2----|
|--2--2--2--2----0--0--0--0----2-2----|
|--3--3--3--3----0--0--0--0----0-0----|

  Doesn't anybody everknow? x2 (without distortion) x1(with distortion)
  
  That the worlds a Subway, Subway


Tabbed out be Jared St.Jean

E-mail me with your comment/corrections at stjean@isys.ca

Thankyou for listening to our lady peace! They rock!!!!!!

  


Date: Thursday, March 27
From: David Harrison 
Subject: TAB: "Superman's Dead" by "Our Lady Peace"
Album: "Clumsy"(1997)

This song is pretty easy but if you have any questions,
comments, corrections, or additions feel free to e-mail
me.

*****************************************
*P.S. -Tune your guitar down half a step*
*****************************************


Verse 1:

E|-----|------|-----|------||
B|-----|------|-----|------||
G|-----|------|-----|------||
D|--9--|--12--|--7--|--10--||
A|--9--|--12--|--7--|--10--||
E|--7--|--10--|--5--|-- 8--||

Fill 1:

E|------------------------------------------------------||
B|---------------------------------12-121212-14-141414--||
G|---------------------------------15b~~~~~~-17b~~~~~~--||
D|--99-X999--1212-X121212--77-X777----------------------||
A|--99-X999--1212-X121212--77-X777----------------------||
E|--77-X777--1010-X101010--55-X555----------------------||


Chorus:

E|-----|------|-----|------|    |-----|------|------|-----||
B|-----|------|-----|------|    |-----|------|------|-----||
G|-----|------|-----|------| 3x |-----|------|------|-----||
D|--9--|--12--|--7--|--10--|Then|--9--|--12--|--10--|--7--||
A|--9--|--12--|--7--|--10--|    |--9--|--12--|--10--|--7--||
E|--7--|--10--|--5--|-- 8--|    |--7--|--10--|-- 8--|--5--||


Verse 2:

E|-----------------5-----------------5-----------------5---|
B|--57575757-575757-7-57575757-575757-7-57575757-575757-7--|
G|---------------------------------------------------------|
D|---------------------------------------------------------|
A|---------------------------------------------------------|
E|---------------------------------------------------------|

E|--------5--------5---||
B|--575757-7-575757-7--||****************************
G|---------------------||*Played with what is played*
D|---------------------||*in the first verse.       *
A|---------------------||****************************
E|---------------------||




Fill 2:

E|------|------|------|
B|------|--7X--|------|
G|------|------|------|
D|--10--|--X9--|-999\-|
A|--10--|--X9--|-999\-|
E|-- 8--|--X7--|-777\-|


Interlude:

E|-----|-----|-----|-----|    |-----|-----|-----|--0--|
B|-----|-----|-----|-----|    |-----|-----|-----|--0--|
G|-----|-----|-----|-----| 3X |-----|-----|-----|--2--|
D|--5--|--4--|--3--|--2--|Then|--5--|--4--|--3--|--3--|
A|--5--|--4--|--3--|--2--|    |--5--|--4--|--3--|--3--|
E|--3--|--2--|--1--|--0--|    |--3--|--2--|--1--|-----|


Verse 3:

E|--3--|--0--|-----|-----|    |-----|-----|-----|-----|
B|--3--|--3--|-----|-----|    |-----|-----|-----|-----|
G|--0--|--2--|--2--|--0--| 2X |-----|--7--|--2--|-----|***********
D|--X--|--0--|--2--|--2--|Then|--5--|--7--|--2--|--2--|*UNTIL END*
A|--2--|-----|--0--|--2--|    |--5--|--5--|--0--|--2--|***********
E|--3--|-----|-----|--0--|    |--3--|-----|-----|--0--|


Here's The Order:

Verse 1 - 6x(00:00)
Fill 1 - 2x(00:34)
Chorus - 1x(00:50)
Verse 2 - 1x(01:12)
Fill 2 - 1x(01:33)
Chorus - 1x(01:40)
Fill 1 - 4x(02:01)
Interlude - 1x(02:23)
Verse 3 -until end(02:51)
Tap to rate this tab
# A B C D E F G H I J K L M N O P Q R S T U V W X Y Z