Song name
# A B C D E F G H I J K L M N O P Q R S T U V W X Y Z

Our Lady Peace - Picture tab

Our Lady Peace
Picture
Healthy in Paranoid Times
Tabbed by:  Craig
Presented by:  ourladypeace.cc

Intro: B-D-F# (Studio version)         (On Live@VH1 video, they play D-F#-B)

(Play D-Chord like this)

Eb   --2-2--2-2---------|
Bb   --3-3--2-2-3(h)----|
Gb   --2-2--2-2---------|
Db   -------------------|
Ab   -------------------|
Db   -------------------|


   B
Waiting by the telephone
           D
Breathing through a giant rubber hose
          F#
God only knows

    B
Photographs of you and me
      D
Pictures of the friends you used to know
            F#
Where did they go?

A        E              D
Don't take my picture down
                 E                  A
And don't erase everything that we had
  E          D
Don't think I let you down
                 E                A
And I might be gone, we'll meet again

           E              D
Can't find you, so I'll call your name


Riding on this satellite
Sun faded and sweaty, but that's alright
Cause I'm still alive
Always stranded in this memory
Your mouth is wide open
You can't scream
Oh you can't scream

And don't take my picture down
And don't erase everything that we had
Don't think I let you down
And I might be gone, we'll meet again
Can't find you, so I'll call your name


Bridge
Eb   -----------------------------------------------------|
Bb   -----------------------------------------------------|
Gb   -----------------------------------------------------|
Db   --9-9-9-9-9---12-12-12-12-12---7-7-7-7-7---4-4-4-4-4-|
Ab   --9-9-9-9-9---12-12-12-12-12---7-7-7-7-7---4-4-4-4-4-|
Db   --7-7-7-7-7---10-10-10-10-10---5-5-5-5-5---2-2-2-2-2-|

Please pick up the phone
Please pick up the phone
Please pick up the phone
Please pick up the phone
Wanted you to know
I wanted you to know
I wanted you to know
I wanted you to know ...

A-E-D-E (X2)

And don't take my picture down
And don't erase everything that we had
Don't think I let you down
And I might be gone, we'll meet again
Can't find you, so I'll call your name
Tap to rate this tab
# A B C D E F G H I J K L M N O P Q R S T U V W X Y Z