Song name
# A B C D E F G H I J K L M N O P Q R S T U V W X Y Z

Our Lady Peace - Monkey Brains tab

Our lady peace - Monkey brains
album: Burn burn

e-mail: avrill_xx@yahoo.com

I think this song has only one guitar, but it's hard to hear sometimes because the 
bass is very present

INTRO
e|----------------------|
B|----------------6-6-6-|
G|-7777777777777--------|
D|----------------------|
A|----------------------|
E|----------------------|

e|-------------------------------------------|
B|-------------------------------------------|
G|-------------------------------------------|
D|-------------------------------------------|
A|-5-5-5-5--5-3-3-3-3--3-5-5-5-5--5----------|
E|----------------------------------6-6-8-8--|


VERSE
repeat this riff during the verses:

    Dm       C
e|----------------|
B|-------6--------|
G|---7-7-----5-5--|
D|--(7-7)---(5-5)-|
A|--(5-5)---(3-3)-|
E|----------------|

     Dm      Bb      C
e|-----------------------|
B|-------6---------------|
G|---7-7-----3-3----5-5--|
D|--(7-7)---(3-3)--(5-5)-|
A|--(5-5)---(1-1)--(3-3)-|
E|-----------------------|


CHORUS
chorus riff
e|----------------------------------------------------|
B|----------------------------------------9h10--------|
G|-7777777-9999999-101010101010--10-12-10------9-10---|
D|----------------------------------------------------|  x2
A|----------------------------------------------------|
E|----------------------------------------------------|

    Dm
e|------------|
B|-------6-6--|
G|--7-7-------|
D|--7-7-------|
A|--5-5-------|
E|------------|


Dm C  Dm Bb C  (riff)

VERSE
    Dm       C
e|----------------|
B|-------6--------|
G|---7-7-----5-5--|
D|--(7-7)---(5-5)-|
A|--(5-5)---(3-3)-|
E|----------------|

     Dm      Bb      C
e|-----------------------|
B|-------6---------------|
G|---7-7-----3-3----5-5--|
D|--(7-7)---(3-3)--(5-5)-|
A|--(5-5)---(1-1)--(3-3)-|
E|-----------------------|

CHORUS

they're coming after you!
e|----------------------------------------------------|
B|----------------------------------------9h10--------|
G|-7777777-9999999-101010101010--10-12-10------9-10---|
D|----------------------------------------------------|  x2
A|----------------------------------------------------|
E|----------------------------------------------------|

BRIDGE
e|---------------------------------|
B|-------6-6------8-8--------10-10-|
G|--7-7-------9-9------10-10-------|
D|--7-7-------9-9------10-10-------|
A|--5-5-------7-7------8--8--------|
E|---------------------------------|

e|----------------------10-12-10-10h12-13-12-12/13-|
B|-11-10-11-11h13-11-13----------------------------|
G|-------------------------------------------------|
D|-------------------------------------------------|
A|-------------------------------------------------|
E|-------------------------------------------------|


Bb: x13311
F : 133211
C : x35533
Gm: 355333

Bb F C Gm

Bb          F                 C   Gm
Generations trying to find a home
Bb               F                    C   Gm
A thousand miles away from what they know
             Bb F C Gm   
It's time to go
             Bb F C Gm 
it's time to go

Bb          F                 C   Gm
Generations trying to find a home
Bb               F                    C   Gm
A thousand miles away from what they know
             Bb F C Gm   
It's time to go
             Bb F C Gm 
it's time to go
             Bb F C Gm   
It's time to go
             Bb F C Gm 
it's time to go


SOLO
e|-------------------------------------------|
B|-------------------------------------------|
G|-------------------------------------------|
D|-------------------------------------------|
A|-5-5-5-5--5-3-3-3-3--3-5-5-5-5--5----------|
E|----------------------------------6-6-8-8--|

e|-------------------------------------------------------------------------------------|
B|-------------------------------------------------------------------------------------|
G|-/14-12--12-12h14--14-10-10h12-9--9--10p9h10-10p9-9-12p10-10-12h14-14-14h15-14-14-14-|
D|-------------------------------------------------------------------------------------|
A|-------------------------------------------------------------------------------------|
E|-------------------------------------------------------------------------------------|


e|---------------------------------------------------13-13-13-13/15-|
B|11-10-10-10------------10-13-13-13------13--13/15-----------------|
G|------------14-15-14-----------------14---------------------------|
D|------------------------------------------------------------------|
A|------------------------------------------------------------------|
E|------------------------------------------------------------------|


e|-------------------------------------------------------------------------|
B|----------------------------------------------------------------10-------|
G|-777777--7-7-7--9999999--9-9-9--101010101010-10-10-10--10-12-10----10-9--|
D|-------------------------------------------------------------------------|
A|-------------------------------------------------------------------------|
E|-------------------------------------------------------------------------|

they're coming after you! ...
e|---------------------------------------------------------------------------------|
B|101010101010x10-10-121212121212-12-12-12-131313131313-13-13-13-13-15-13-17-13-12-|
G|-7-7-7-7-7-7x7--7--9-9-9-9-9-9--9--9--9--101010101010-10-10-10-10-12-10-14-10-9--|
D|---------------------------------------------------------------------------------|
A|---------------------------------------------------------------------------------|
E|---------------------------------------------------------------------------------|
Tap to rate this tab
# A B C D E F G H I J K L M N O P Q R S T U V W X Y Z