Song name
# A B C D E F G H I J K L M N O P Q R S T U V W X Y Z

Our Lady Peace - Is Anybody Home tab

Title: Is Anybody Home?
Band: Our Lady Peace
Album: Happiness...Is Not A Fish You Can Catch
Tabbed By jjhand

I added to the original tab by xWHATSERNAMEx, including an accurate solo. 
Please rate or comment.

 Acoustic Intro - Part 1

   Fm            Db               Eb             Ab
Eb--2---2---2-------------------|---------0----------------------|
Bb--2---2---2------3---3---3-3--|---------0----------2---2---2---|
Gb--2---2---2------2---2---2-2--|---------1------2---2---2---2---|
Db--4---4---4----x-0---0---0-0--|-2---2---2------2---2---2---2---|
Ab--4---4---4----x--------------|-2---2---2----x-0---0---0---0---|
Eb--2---2---2-------------------|-0---0---0----x-----------------|
  "Goodbye, the future's sold out        There's no use screaming"


Part 2-
   Fm            Db               C
Eb--2---2---2-------------------|-------------------|
Bb--2---2---2-------------------|-------------------|
Gb--2---2---2------7---7---7-7--|-6-----------------|
Db--4---4---4----x-7---7---7-7--|-6-----------------|
Ab--4---4---4----x-5---5---5-5--|-4----------x-x-x--|  <- distorted
Eb--2---2---2-------------------|------------x-x-x--|  <- guitar starts
   "Who thought we'd ever get this far"





Heavy Riff 1 (Before Verse 1)
    Guitar 1 
    Fm           Dbmaj7             Ab/Eb    Ab
eb|-----------------------------|-------------------------|
Bb|-----1--2--2-2-----2--2--2-2-|----1--2-------2--1--0---|
Gb|-----2--2--2-2-----2--2--2-2-|----2--2-----------------| play
Db|---------------0-------------|-------------------------| 2x
Ab|-----------------------------|------------0------------|
Eb|--2--------------------------|-0-----------------------|
  |
  | Guitar 2
eb|-----------------------------|-------------------------|
Bb|-----------------------------|-------------------------|
Gb|---------------7---7--7--7-7-|-------1----2-2-2-2------|
Db|-----4--4--4-4-7---7--7--7-7-|-2--2--2----2-2-2-2------|
Ab|-----3--4--4-4-5---5--5--5-5-|-2--2--2----0-0-0-0------|
Eb|--2--2--2--2-2---------------|-0--0--0-----------------|




Verse - (Acoustic plays Intro Part 1 3x, then ends Verse with Part 2)

Lead Guitar:
Eb|---------|---0-2-0---|-----------|---0-2-0---0-----|---0-2-0---0-2-0-|
Bb|---------|-----------|-----------|-----------------|-----------------|
Gb|-rest----|-----------|--rest-----|---------2---2-1-|-----------------|
Db|---------|-----------|-----------|-----------------|-4-------0-------|
Ab|---------|-----------|-----------|-----------------|-----------------|
Eb|---------|-----------|-----------|-----------------|-----------------|

   "Tonight, your faith has come down To money and a TV"
   "Psychics who've never been to Mars, And nazis breast feeding"


Eb|----4-------9~-----|---0-2-0---0-2-0-|---0-2-0---0-4-0-|
Bb|------5------------|-----------------|-----------------|
Gb|--4----------------|-----------------|-----------------|
Db|-------------------|-4-------0-------|-----------------|
Ab|-------------------|-----------------|-4---------------|
Eb|-------------------|-----------------|-----------------|
  
"I know you must be upset, I can't find meaning"
"I'm sorry, we're sorry We're all scared, all scared"




 Chorus - Clean Guitar, played 1x on first time through 
Eb|----------------|---------------|---------------|-------10-------||
Bb|--------14------|-------14------|-------14------|----10------10--||
Gb|-----14------14-|----14------14-|----14------14-|----------------||
Db|----------------|-12------------|---------------|----------------||
Ab|--12------------|---------------|-14------------|-10-------------||
Eb|----------------|---------------|---------------|----------------||
   Hey, Is anybody home, is anybody wasting tears on loneliness that everyone becomes"




Play Heavy Riff 1 again

Play Verse again

Verse 2 Lyrics: 
"Goodnight, the truth has come out, Everyone's needy
 White teeth, a ticket to meet God, be all that you envy.
 The shotgun under your bed has started breathing
 You shot it, you shot it, I'm bare, I'm bare"



Play Chorus again




Distorted Chorus- 2 Guitars (chords shown, but listen to strum rhythm)
    Ab                Db                    Bbm add9
Eb|-5---5---5---5---|-10---10---10---10---|-9---9---9---9---|
Bb|-5---5---5---5---|-10---10---10---10---|-7---7---7---7---|
Gb|-6---6---6---6---|-11---11---11---11---|-7---7---7---7---|
Db|-7---7---7---7---|-12---12---12---12---|-9---9---9---9---|
Ab|-7---7---7---7---|-12---12---12---12---|-9---9---9---9---|
Eb|-5---5---5---5---|-10---10---10---10---|-7---7---7---7---|


   Lead                   | Ending, This time only:
    Gb                    | Fsus4
eb|-7--7--7--7--7-7---7---|-7--7--7--7--7--7--7--7-|
Bb|-8--8--8--8--8-8---8---|-7--7--7--7--7--7--7--7-|
Gb|-7--7--7--7--7-7---7---|-6--6--6--6--6--6--6--6-|
Db|-9--9--9--9--9-9---9---|-8--8--8--8--8--8--8--8-|
Ab|-----------------------|------------------------|
Eb|-----------------------|------------------------|
  |
  |Rhythm
eb|-----------------------|------------------------|
Bb|-----------------------|------------------------|
Gb|-----------------------|------------------------|
Db|-5--5--5--5--5-5---5---|-4--4--4--4--4--4--4--4-|
Ab|-5--5--5--5--5-5---5---|-4--4--4--4--4--4--4--4-|
Eb|-3--3--3--3--3-3---3---|-2--2--2--2--2--2--2--2-|




 Solo
Eb|------------------------------|---------------------------------------|
Bb|-------------------------12-12|-12-14-12-x--14-14---14~-14b16~-14b17~-|
Gb|---12--13----12--13--13\------|---------------------------------------|
Db|----------11-------------9--9-|-9--11-9--x--11-11---11~---------------|
Ab|------------------------------|---------------------------------------|
Eb|------------------------------|---------------------------------------|

Eb|------------9--11-11b12----------|-----------------------------|
Bb|---------------------------------|-----------------------12b14-|
Gb|--------------------------9-9~-9~|-9--x-12--13----12--13-------|
Db|------------------------11-------|-------------11--------------|
Ab|---7-7-7b8~----------------------|-----------------------------|
Eb|-9-------------------------------|-----------------------------|


Eb---------------------------------------|-14-14-14-14-b15b15b15b15b15-15/16-16-x--x-x-|
Bb--------------------------12-12-12/14--|-----------------------------------------x-x-|
Gb---------9-12-12-12/13-----------------|-12-12-12-12-b13b13b13b13b13-13/14-14-x--0-0-|
Db-9/11-11------------------9--9--9/11---|---------------------------------------------|
Ab---------7-10-10-10/11-----------------|---------------------------------------------|
Eb-7/9--9--------------------------------|---------------------------------------------|


Eb-12-/13-13-/14-14-14-14\-/15\/15\/15\/17\/17\-x\-|
Bb-12-/13-13-/14-14-14-14\-/15\/15\/15\/17\/17\-x\-|
Gb-------------------------------------------------|
Db-------------------------------------------------|
Ab-------------------------------------------------|
Eb-------------------------------------------------|



Play Distorted Chorus (4 bars, Ab - Db - Bb - Gb chords), with Lead part below

   Lead Guitar (listen for strumming pattern of high notes)

   Ab          Db          Bb          Gb
Eb|--9--------|-9---------|-9---------|-10--------|
Bb|--10-------|-10--------|-10--------|-10--------|
Gb|-----------|-----------|-----------|-----------|
Db|-----------|-----------|-----------|-----------|
Ab|-----------|-----------|-----------|-----------|
Eb|-----------|-----------|-----------|-----------|

Eb|--9--------|-9---------|-10--------|-12--------|
Bb|--10-------|-10--------|-10--------|-10--------|
Gb|-----------|-----------|-----------|-----------|
Db|-----------|-----------|-----------|-----------|
Ab|-----------|-----------|-----------|-----------|
Eb|-----------|-----------|-----------|-----------|

eb|---12-12~--12-12~|---10------|-----------|-----------|
Bb|-----------------|---10------|-14--------|-10--------|
Gb|-----------------|-----------|-14b16-----|-----------|
Db|-----------------|-----------|-----------|-----------|
Ab|-----------------|-----------|-----------|-----------|
Eb|-----------------|-----------|-----------|-----------|

Ending:
    Ab                                       Db
eb|-12-12-12~-12-12-12~-12-12-12~-12-12-12~|-12-12-12~-12-12-12~-12--12--12--12-|
Bb|----------------------------------------|------------------------------------|
Gb|----------------------------------------|------------------------------------|
Db|----------------------------------------|------------------------------------|
Ab|----------------------------------------|------------------------------------|
Eb|----------------------------------------|------------------------------------|
    
    Bbm                             Gb 
eb|-0-----0-----0-----0-----------|------------------------------------|
Bb|-15p14-15----15p14-15---15p14--|------------------------------------|
Gb|-------------------------------|-14~--------------------------------|
Db|-------------------------------|------------------------------------|
Ab|-------------------------------|------------------------------------|
Eb|-------------------------------|------------------------------------|


key:
| /  slide up
| \  slide down
| h  hammer-on
| p  pull-off
| ~  vibrato
| b  bend note
| r  release bend
| x  Mute note, or random string squeaks
Tap to rate this tab
# A B C D E F G H I J K L M N O P Q R S T U V W X Y Z