Song name
# A B C D E F G H I J K L M N O P Q R S T U V W X Y Z

Our Lady Peace - Big Dumb Rocket tab

-----------------------------------------------------------------------------
			BIG DUMB ROCKET - Our Lady Peace
-----------------------------------------------------------------------------
Tabbed by: Sprog
Email: asprague@gmail.com

This tab has been arranged for a single guitar in accordance with how the song is 
played during the live shows.  It's not exactly what's on the album.

Tuning: 1/2 step down

Intro - Clean (x1)
e|--0---0-0-----------------------------------------------------------------|
B|--0---0-0-----------------------------------------------------------------|
G|--9---9-9----5---5-5----6---6---6---6-------------------------------------|
D|--9---9-9----5---5-5----7---7---7---7-------------------------------------|
A|--7---7-7----3---3-3----7---7---7---7-------------------------------------|
E|-------------3---3-3----5-5-5-5-5-5-5-------------------------------------|

Intro - Distorted (x2)
e|--------------------------------------------------------------------------|
B|--------------------------------------------------------------------------|
G|--------4-5----5---5-5-7----8-7-8-7-8-7-8-7-------------------------------|
D|--2---2-4-5----5---5-5-7----7-7-7-7-7-7-7-7-------------------------------|
A|--2---2-2-3----3---3-3-5----0-0-0-0-0-0-0-0-------------------------------|
E|--0---0-------------------------------------------------------------------|

Intro End - Distorted (x1)
e|--------------------------------------------------------------------------|
B|--------------------------------------------------------------------------|
G|--10-10-10-10-10-10-10-10-9--9--9--9--9--9--9--9--------------------------|
D|--10-10-10-10-10-10-10-10-10-10-10-10-10-10-10-10-------------------------|
A|--8--8--8--8--8--8--8--8--7--7--7--7--7--7--7--7--------------------------|
E|--------------------------------------------------------------------------|

Verse - Flanger (x4)
e|---12---------------------------------------------------------------------|
B|--------10b---------------------------------------------------------------|
G|--------------------------------------------------------------------------|
D|--------------------------------------------------------------------------|
A|--------------------------------------------------------------------------|
E|--------------------------------------------------------------------------|

Verse End - Distorted (x1)
e|--------------------------------------------------------------------------|
B|--------------------------------------------------------------------------|
G|-----10-10-10-10-10-10-10-10-----9--9--9--9--9--5--5--5--5----------------|
D|-----10-10-10-10-10-10-10-10-----10-10-10-10-10-5--5--5--5----------------|
A|-----8--8--8--8--8--8--8--8------7--7--7--7--7--3--3--3--3----------------|
E|--------------------------------------------------------------------------|
Will you notice me or notice it or fade into this accident?

Chorus - Distorted (x2)
e|--3--3----1--1------------0-------3---3----1--1--------------------------|
B|--3--3----1--1------------3-------3---3----1--1--------------------------|
G|--0--0----2--2---5--5-5---5b------0---0----2--2---------9--9--9-9--5-----|
D|--0--0----3--3---5--5-5-----------0---0----3--3---------9--9--9-9--5-----|
A|--2--2----3--3---3--3-3-----------2---2----3--3---------7--7--7-7--3-----|
E|--3--3----1--1--------------------3---3----1--1--------------------------|
And I don't wanna find.....     The big dumb rocket on your mind.

e|--------------------------------------------------------------------------|
B|-----11--11\10------------------------------------------------------------|
G|--------------------------------------------------------------------------|
D|--/10--10-----------------------------------------------------------------|
A|--------------------------------------------------------------------------|
E|--------------------------------------------------------------------------|

Bridge - Distorted (x2)
e|--------------------------------------------------------------------------|
B|--2---2-----3---3-------5---5-----7---7-----------------------------------|
G|--2-2---2---0-0---0-------5---5---7-7---7---------------------------------|
D|--2---------0---------------------0---------------------------------------|
A|--0---------2---------3---------------------------------------------------|
E|--------------------------------------------------------------------------|

e|--------------------------------------------------------------------------|
B|--2---2-----3---3-------1---1-----3---3-----------------------------------|
G|--2-2---2---0-0---0-------0---0---2-2---2---------------------------------|
D|--2---------0---------------------0---------------------------------------|
A|--0---------2---------3---------------------------------------------------|
E|--------------------------------------------------------------------------|


************************************

| /   slide up
| \   slide down
| h   hammer-on
| p   pull-off
| ~   vibrato
| +   harmonic
| x   Mute note
| b   Bend
| pb  Pre-bend
| br  Bend release
| pbr Pre-bend release
| brb Bend release bend

************************************
Tap to rate this tab
# A B C D E F G H I J K L M N O P Q R S T U V W X Y Z