Song name
# A B C D E F G H I J K L M N O P Q R S T U V W X Y Z

Our Lady Peace - Are You Sad? tab

Tuning: down 1/2 step

intro accoustic guitar
eb-----------x--x---x---x--x---x--------x---x--x--x----x--x---0--------------------
Bb-----------2--2---2---x--x---2--------2sl-3--3--3----x--x---3--------------------
Gb-----------2--2---2---x--x---2--------2---2--2--2----x--x---2--------------------
Db--0---0----0--0---0---x--x---0----0---0---0--0--0----x--x---0--------------------
Ab---------------------------------------------------------------------------------
Eb---------------------------------------------------------------------------------

eb---------------------------------------------|-
Bb---------------------------------------------|-
Gb---------------------------------------------|-      x2
Db----5---5---5------5-----5--5-5-------5------|-
Ab----5---5---5------5-----5--5-5-------5------|-
Eb----3---3---3-h-5--3-----3--3-3-h--5--3------|-
lead
eb--3~------------3---2------------------------------------------------------------
Bb---------------------5/3--------------------------------2b3r2----2b3r2b3r2-------
Gb--------------------------2~--2-4-2-4-2------------------------------------------
Db---------------------------------------------------------------------------------
Ab---------------------------------------------------------------------------------
Eb---------------------------------------------------------------------------------

eb---3----2-----------------------------------------------------------------------
Bb-----------5/3------------------------------------------------------------------
Gb------------------2~--------2-4-2-4-2-------------------------------------------
Db--------------------------------------------------------------------------------
Ab--------------------------------------------------------------------------------
Eb--------------------------------------------------------------------------------
verse (strum pattern not shown)
eb---x--------------------------------------x-------------------------------------
Bb---2--------------------------------------2-------------------------------------
Gb---2--------------------------------------2-------------------------------------
Db---0----------5------2-------5--4---------0------5------2----5------------------
Ab--------------5------2-------5--4----------------5------2----5------------------
Eb--------------3------0-------3--2----------------3------0----3------------------
pre corus (strum pattern not shown)
eb---------------------------------------------------------------------------------
Bb---------------------------------------------------------------------------------
Gb----4----------4------------5~---------------------------------------------------
Db----4----5-----4------5-----5~---------------------------------------------------
Ab----2----5-----2------5-----3~---------------------------------------------------
Eb---------3------------3----------------------------------------------------------
Chorus D5 G5 E5 G5 F#5 B5 x2

play intro again on electric

pre Chorus

Chrous

Interlude D5 G5 E5 G5 

Chorus

Interlude chords

Finish with C5 C5 C5 C5 D5
Tap to rate this tab
# A B C D E F G H I J K L M N O P Q R S T U V W X Y Z