Song name
# A B C D E F G H I J K L M N O P Q R S T U V W X Y Z

Our Lady Peace - Made To Heal tab

----------------------------------------------------------------------------
			     Made To Heal - Our Lady Peace
----------------------------------------------------------------------------
Tabbed by: emo_punk_guitar
Email:

Tuning:

Intro/Verse 1 & 2

e|-----------------------------------------------------------------|
B|-----4-------4-------4-------4-------4------4-------4---------4--|
G|-----------------------------------------------------------------|
D|-----------------------------------------------------------------|
A|-----------------2-2---2-2-2---2-0-0---0-0-0--0-4-4---4p2-2-2----|
E|-0-0---0-0-0---0-------------------------------------------------|

Pre-Chorus

e|-----------------------------------------------------------------|
B|-----------------------------------------------------------------|
G|-----------------------------------------------------------------|
D|-7-7-7-7-7-7-7-7-9-9-9-9-9-9-9-9-7-7-7-7-7-7-7-7-6-6-6-6-6-------|
A|-7-7-7-7-7-7-7-7-9-9-9-9-9-9-9-9-7-7-7-7-7-7-7-7-6-6-6-6-6-------|
E|-5-5-5-5-5-5-5-5-7-7-7-7-7-7-7-7-5-5-5-5-5-5-5-5-4-4-4-4-4-------|

Chorus

e|---------------------------------------------------------------------|
B|---------------------------------------------------------------------|
G|-2-2-2-2---------------4---4-------4-----4---2-2-2-2-----------------|
D|-2-2-2-2-2-2-2-2-2-2-2-4-6---6-4-6---6-6---6-2-2-2-2-2-2-2-2-2-2-2---|
A|-0-0-0-0-2-2-2-2-2-2-2-2---------------------0-0-0-0-2-2-2-2-2-2-2---|
E|---------0-0-0-0-0-0-0-------------------------------0-0-0-0-0-0-0---|

e|---------------------------------------------------------------------|
B|---------------------------------------------------------------------|
G|----------------------2-2-2-2---------------4---7-------4-----4------|
D|-4---4------4-----4---2-2-2-2-2-2-2-2-2-2-2-4-9---9-4-6---6-6---6----|
A|-4-6--6-4-6---6-6---6-0-0-0-0-2-2-2-2-2-2-2-2------------------------|
E|-2----------------------------0-0-0-0-0-0-0--------------------------|
                         
e|----------------------------|
B|----------------------------|
G|-2-2-2-2---------------4~---|
D|-2-2-2-2-2-2-2-2-2-2-2-4~---|
A|-0-0-0-0-2-2-2-2-2-2-2-2~---|
E|---------0-0-0-0-0-0-0------|
                         ^
            2nd time, repeat and go to here...

Bridge                            
e|-------------------------------------------------------------------| 
B|-------------------------------------------------------------------|
G|-2-2-2-2-2-2-2-2-2-2-2-2-2-2-2-2-----------------------------------|
D|-2-2-2-2-2-2-2-2-2-2-2-2-2-2-2-2-4-4-4-4-4-4-4-4-4-4-4-4-4-4-4-4---|
A|-0-0-0-0-0-0-0-0-0-0-0-0-0-0-0-0-4-4-4-4-4-4-4-4-4-4-4-4-4-4-4-4---|
E|---------------------------------2-2-2-2-2-2-2-2-2-2-2-2-2-2-2-2---|
 
                second time, skip to: Verse 3
e|-----------------------------------|-----------------------------------| 
B|-----------------------------------|-----------------------------------|
G|-----------------------------------|-2-2-2-2-2-2-2-2-4-4-4-4-4-4-4-4---|
D|-6-6-6-6-6-6-6-6-6-6-6-6-6-6-6-6---|-2-2-2-2-2-2-2-2-4-4-4-4-4-4-4-4---|
A|-6-6-6-6-6-6-6-6-6-6-6-6-6-6-6-6---|-0-0-0-0-0-0-0-0-2-2-2-2-2-2-2-2---|
E|-4-4-4-4-4-4-4-4-4-4-4-4-4-4-4-4---|-----------------------------------|


                            to chrous
e|-----------------------------------|
B|-----------------------------------|
G|-2-2-2-2-2-2-2-2-4-4-4-4-5-5-5-5---|
D|-2-2-2-2-2-2-2-2-4-4-4-4-5-5-5-5---|
A|-0-0-0-0-0-0-0-0-2-2-2-2-3-3-3-3---|
E|-----------------------------------|



Chorus

e|---------------------------------------------------------------------|
B|---------------------------------------------------------------------|
G|-2-2-2-2---------------4---4-------4-----4---2-2-2-2-----------------|
D|-2-2-2-2-2-2-2-2-2-2-2-4-6---6-4-6---6-6---6-2-2-2-2-2-2-2-2-2-2-2---|
A|-0-0-0-0-2-2-2-2-2-2-2-2---------------------0-0-0-0-2-2-2-2-2-2-2---|
E|---------0-0-0-0-0-0-0-------------------------------0-0-0-0-0-0-0---|

e|---------------------------------------------------------------------|
B|---------------------------------------------------------------------|
G|----------------------2-2-2-2---------------4---7-------4-----4------|
D|-4---4------4-----4---2-2-2-2-2-2-2-2-2-2-2-4-9---9-4-6---6-6---6----|
A|-4-6--6-4-6---6-6---6-0-0-0-0-2-2-2-2-2-2-2-2------------------------|
E|-2----------------------------0-0-0-0-0-0-0--------------------------|
                        
e|-------------------------|
B|-------------------------|
G|-2-2-2-2-----------------|
D|-2-2-2-2-2-2-2-2-2-2-2---|
A|-0-0-0-0-2-2-2-2-2-2-2---|
E|---------0-0-0-0-0-0-0---|


Outro
e|-------------------------------------------------------------------|
B|---------------------------------------------4---------------------|
G|---------------------2-2-2-2---------------6---6-----6---2-2-2-2---|
D|---4-------4-----4---2-2-2-2-2-2-2-2-2-2-2-------8-9---9-2-2-2-2---|
A|-6---6-4-6---6-6---6-0-0-0-0-2-2-2-2-2-2-2---------------0-0-0-0---|
E|-----------------------------0-0-0-0-0-0-0-------------------------|


Chorus

e|---------------------------------------------------------------------|
B|---------------------------------------------------------------------|
G|-2-2-2-2---------------4---4-------4-----4---2-2-2-2-----------------|
D|-2-2-2-2-2-2-2-2-2-2-2-4-6---6-4-6---6-6---6-2-2-2-2-2-2-2-2-2-2-2---|
A|-0-0-0-0-2-2-2-2-2-2-2-2---------------------0-0-0-0-2-2-2-2-2-2-2---|
E|---------0-0-0-0-0-0-0-------------------------------0-0-0-0-0-0-0---|
                        
e|---------------------------------------------------------------------|
B|---------------------------------------------------------------------|
G|-----------------------2-2-2----------------4---7-------4-----4------|
D|-4---6-------6-----4---2-2-2--2-2-2-2-2-2-2--4-9---9-4-6---6-6---6---|
A|-4-9---9-8-9---9-6--6--0-0-0--2-2-2-2-2-2-2--------------------------|
E|-2----------------------------0-0-0-0-0-0-0--------------------------|
                         

Song Order:
Intro
Verse 1
Pre-Chorus
Chorus
Verse 2
Pre-Chorus
Chorus
Bridge
Verse 3
Chrous
Outro 


| /  slide up
| \  slide down
| h  hammer-on
| p  pull-off
| ~  vibrato
| +  harmonic
| x  Mute note
============================================================================
Tap to rate this tab
# A B C D E F G H I J K L M N O P Q R S T U V W X Y Z