Song name
# A B C D E F G H I J K L M N O P Q R S T U V W X Y Z

Our Lady Peace - Potato Girl tab

Help us improve GuitareTab! Take a short survey!
transcripted by: Jason 

tunning : Eb Ab Db Gb Bb Eb 

/= slide down 
\= slide up 
[x] = harmonic 
    
    hit these   | at :48 just keep     | then pre chorus is bass | 
  chords softly |rotating those chords | but I do chords softly..| 
Eb-|-0--2-------|----------------------|---3-2--|----------------| 
Bb-|-2--3-------|----------------------|---3-3--|-----Bass-------| 
Gb-|-2--2-------|---<-see first box----|---0-2--|----------------| 
Db-|-2----------|----------------------|-2-0----|----------------| 
Ab-|------------|----------------------|-2-2----|----------------| 
Eb-|------------|----------------------|-0-3----|----12--3--0----| 
chorus                  x2               3rd time          4th time same as 
Eb-|------------|------------3--2-----|-----------3-2--|first two times BUT 
Bb-|------------|--2---------3--3-----|-2---------3-3--|stay on G chord for 
Gb-|------------|--2---------0--2--4--|-2---------0-2--|an extra second or 
Db-|-[5]-[5][5]-|--2------2--0--0--4--|-2-----2-2-0-0--|else youll be off tune 
Ab-|-[5]-[5][5]-|--0--0-4----2-----2--|-0-0-4---2-2----|by the time the chorus 
Eb-|-[5]-[5][5]-|------------3--------|---------0-3----|is through 

    hit these   | at 2:01 just keep    | then pre chorus is bass | 
  chords softly |rotating those chords | but I do chords softly..| 
Eb-|-0--2-------|----------------------|---3-2--|----------------| 
Bb-|-2--3-------|----------------------|---3-3--|-----Bass-------| 
Gb-|-2--2-------|---<-see first box----|---0-2--|----------------| 
Db-|-2----------|----------------------|-2-0----|----------------| 
Ab-|------------|----------------------|-2-2----|----------------| 
Eb-|------------|----------------------|-0-3----|----12--3--0----| 

add one extra 
harmonic before 
all 3 here| 
chorus    |   
          |             x2               3rd time       4th time 
Eb-|------------|------------3--2-----|-----------3-2--|------| 
Bb-|------------|--2---------3--3-----|-2---------3-3--|--2---| 
Gb-|------------|--2---------0--2--4--|-2---------0-2--|--2---| 
Db-|-[5]-[5][5]-|--2------2--0--0--4--|-2-----2-2-0-0--|--2---| 
Ab-|-[5]-[5][5]-|--0--0-4----2-----2--|-0-0-4---2-2----|--0---| 
Eb-|-[5]-[5][5]-|------------3--------|---------0-3----|------| 

solo 
Eb-|-[5]------------------------------------------------------------------- 
Bb-|----------------------------------------------------------------------- 
Gb-|-----4-6-7\11-6-6h7p6-4--22-44-6-7\11-6-4-7-7-6-4-6-7\11-6-6h7p6-4-22-- 
Db-|----------------------------------------------------------------------- 
Ab-|----------------------------------------------------------------------- 
Eb-|----------------------------------------------------------------------- 
solo cont 
Eb-|--------------3-2---| 
Bb-|--------------3-3---| 
Gb-|-44-6-7-6-7-9-0-2---| 
Db-|------------x-0-0---| 
Ab-|------------6-2-----| 
Eb-|--------------3-----| 

           x2               3rd time        
Eb-|------------3--2-----|-----------3-2--|       |---| 
Bb-|--2---------3--3-----|-2---------3-3--|       |-2-| 
Gb-|--2---------0--2--4--|-2---------0-2--|       |-2-| 
Db-|--2------2--0--0--4--|-2-----2-2-0-0--| (x2)  |-2-| <---- end song on 
Ab-|--0--0-4----2-----2--|-0-0-4---2-2----|       |-0-|      this chord 
Eb-|------------3--------|---------0-3----|       |---| 

Related for Potato Girl tab