Song name
# A B C D E F G H I J K L M N O P Q R S T U V W X Y Z

Our Lady Peace - Life tab

Song: Life
Album: Spiritual Machines
Band: Our Lady Peace
Tunning: Eb Ab Db Gb Bb eb (D# G# C# F# A# d#)
Tabber: Tom

Intro/Verse:

Guitar 1 
(clean)
Eb|------------------|-----------------|-----------------|--------------|
Bb|------------------|-----------------|-----------------|--------------|
Gb|------------------|-----------------|-----------------|--------------|
Db|------------------|-----------------|-----------------|--------------|
Ab|-----12-------12--|---9-------7-----|---5-------5-----|---5-------7--|
Eb|--10--------9-----|-7-------5-------|-3-------2-------|-3-------5----|x6

Guitar 2
(clean)
this guitar comes in after guitar 1 plays its measure twice

Eb|------12----------12----|-------12----------12----|-----7--------7----|
Bb|-15------15-14-------14-|-12-------12-------------|-8-----10-7-----10-|
Gb|------------------------|-------------14-------14-|---7--------7------|
Db|---12----------12-------|----12----------12-------|-------------------|
Ab|------------------------|-------------------------|-------------------|
Eb|------------------------|-------------------------|-------------------|

Eb|--------7-------7-----|
Bb|-8---10---10------10--|
Gb|---7------------------|
Db|-------------11-------|
Ab|----------------------|
Eb|----------------------|x4

Chorus:x2

Guitar 1
   [---------------Clean--------------] [------------Distortion-----------]
Eb|------------------|-----------------|-----------------|-----------------|
Bb|------------------|-----------------|-----------------|-----------------|
Gb|------------------|-----------------|-----------------|-----------------|
Db|------------------|-----------------|-----------------|-----------------|
Ab|-----12-------12--|---9-------7-----|-5-5-5-5-5-5-5-5-|-5-5-5-5-7-7-7-7-|
Eb|--10--------9-----|-7-------5-------|-3-3-3-3-2-2-2-2-|-3-3-3-3-5-5-5-5-|

Guitar 2
(clean)
Eb|--------0-----0---|-----0---------0-|-----------------|-----------------|
Bb|------3---------3-|-------3-----3---|---3---3---3---3-|---3---3---3---3-|
Gb|----2-------2-----|---2-------2-----|-----2-------2---|-----2-------2---|
Db|--0---------------|-----------------|-----------------|-----------------|
Ab|----------4-------|-2-------0-------|-----------------|---------0-------|
Eb|------------------|-----------------|-3-------2-------|-3---------------|

Post Chorus thing:

Eb|------------------------|------------------------|
Bb|------------------------|------------------------|
Gb|--11---11---11-12-14\---|--------------11-12-----|
Db|---------------------11-|---12-14---14-----------|
Ab|------------------------|------------------------|
Eb|------------------------|------------------------|

Verse 2:

Guitar 1 
(clean, towards the end of the second time through, a bit of distortion)
Eb|------------------|-----------------|-----------------|--------------|
Bb|------------------|-----------------|-----------------|--------------|
Gb|------------------|-----------------|-----------------|--------------|
Db|------------------|-----------------|-----------------|--------------|
Ab|-----12-------12--|---9-------7-----|---5-------5-----|---5-------7--|
Eb|--10--------9-----|-7-------5-------|-3-------2-------|-3-------5----|x2

Guitar 2
(clean)

Eb|------12----------12----|-------12----------12----|-----7--------7----|
Bb|-15------15-14-------14-|-12-------12-------------|-8-----10-7-----10-|
Gb|------------------------|-------------14-------14-|---7--------7------|
Db|---12----------12-------|----12----------12-------|-------------------|
Ab|------------------------|-------------------------|-------------------|
Eb|------------------------|-------------------------|-------------------|

Eb|--------7-------7-----|
Bb|-8---10---10------10--|
Gb|---7------------------|
Db|-------------11-------|
Ab|----------------------|
Eb|----------------------|x2

Chorus 2:x2

Guitar 1
   [---------------Clean--------------] [------------Distortion-----------]
Eb|------------------|-----------------|-----------------|-----------------|
Bb|------------------|-----------------|-----------------|-----------------|
Gb|------------------|-----------------|-----------------|-----------------|
Db|------------------|-----------------|-----------------|-----------------|
Ab|-----12-------12--|---9-------7-----|-5-5-5-5-5-5-5-5-|-5-5-5-5-7-7-7-7-|
Eb|--10--------9-----|-7-------5-------|-3-3-3-3-2-2-2-2-|-3-3-3-3-5-5-5-5-|

Guitar 2
(clean)
Eb|--------0-----0---|-----0---------0-|-----------------|-----------------|
Bb|------3---------3-|-------3-----3---|---3---3---3---3-|---3---3---3---3-|
Gb|----2-------2-----|---2-------2-----|-----2-------2---|-----2-------2---|
Db|--0---------------|-----------------|-----------------|-----------------|
Ab|----------4-------|-2-------0-------|-----------------|---------0-------|
Eb|------------------|-----------------|-3-------2-------|-3---------------|


Bridge:

Both (Strumming chords)
Eb|-3---2---|-0---2---|-3---2-|-0---|
Bb|-3---3---|-3---3---|-3---3-|-3---|
Gb|-0---2---|-0---2---|-0---2-|-2---|
Db|-0---0---|-2---0---|-0---0-|-2---|
Ab|-x---x---|-2---x---|-x---x-|-0---|
Eb|-3---2---|-0---2---|-3---2-|-----|

Solo:

Eb|----------------------|-------------------------|----------------------|
Bb|----------------------|-------------------------|----------------------|
Gb|-11---11---11-12-14\6-|---7-9---9-9-11-11^-(11)-|-11---11---11-12-14\6-|
Db|-0----0----0--0--0--0-|---0-0---0-0-0--0--------|-0----0----0--0--0--0-|
Ab|----------------------|-------------------------|----------------------|
Eb|----------------------|-------------------------|----------------------|

Eb|--------------------------|------------------------|--------------------|
Bb|-----------10-------------|------------------------|--------------------|
Gb|-7-9---9-9-9--12-11^-(11)-|-11---11---11-12-14^-14-|-14-14-14-14---14-9-|
Db|-0-0---0-0-0--0--0--------|-0----0----0--0--0---0--|-0--0--0--0----0--0-|
Ab|--------------------------|------------------------|--------------------|
Eb|--------------------------|------------------------|--------------------|

Eb|-----|------------------------|---------------------------|
Bb|-----|------------------------|--------17-17-17-17-17-17--|
Gb|-9-9-|-11---11---11-12-14^-14-|---14---14-14-14-14-14-14--|
Db|-0-0-|-0----0----0--0--0---0--|---0----0--0--0--0--0--0---|
Ab|-----|------------------------|---------------------------|
Eb|-----|------------------------|---------------------------|

Bridge:

Both (Strumming chords)
Eb|-3---2---|-0---2---|-3---2-|-0---|
Bb|-3---3---|-3---3---|-3---3-|-3---|
Gb|-0---2---|-0---2---|-0---2-|-2---|
Db|-0---0---|-2---0---|-0---0-|-2---|
Ab|-x---x---|-2---x---|-x---x-|-0---|
Eb|-3---2---|-0---2---|-3---2-|-----|


Chorus 3:

Guitar 1
   [---------------Clean--------------] [------------Distortion-----------]
Eb|------------------|-----------------|-----------------|-----------------|
Bb|------------------|-----------------|-----------------|-----------------|
Gb|------------------|-----------------|-----------------|-----------------|
Db|------------------|-----------------|-----------------|-----------------|
Ab|-----12-------12--|---9-------7-----|-5-5-5-5-5-5-5-5-|-5-5-5-5-7-7-7-7-|
Eb|--10--------9-----|-7-------5-------|-3-3-3-3-2-2-2-2-|-3-3-3-3-5-5-5-5-|

Guitar 2
(clean)
Eb|--------0-----0---|-----0---------0-|-----------------|-----------------|
Bb|------3---------3-|-------3-----3---|---3---3---3---3-|---3---3---3---3-|
Gb|----2-------2-----|---2-------2-----|-----2-------2---|-----2-------2---|
Db|--0---------------|-----------------|-----------------|-----------------|
Ab|----------4-------|-2-------0-------|-----------------|---------0-------|
Eb|------------------|-----------------|-3-------2-------|-3---------------|
                                       
         End with the the last two bars a few times, and thats it. 
Tap to rate this tab
# A B C D E F G H I J K L M N O P Q R S T U V W X Y Z