Song name
# A B C D E F G H I J K L M N O P Q R S T U V W X Y Z

Our Lady Peace - Happiness & The Fish tab

This song is played half a step down.


Intro

E|-------------------------------------|
B|--2-2-2-2--1-1-1-1--2-2-2------------|
G|---2-2-2-2--2-2-2-2--2-2-2-----------|
D|-------------------------------------|
A|-------------------------------------|
E|-------------------------------------|

"...without the mess, addiction leaves you sad to day and
unimpressed...."

Pre Chorus

E|-------------------------------/12---|
B|--1-1-1------------------------/12---|
G|--2-2-2------------------------------|
D|--2-2-2----10-10-10--9-9-9-----------|
A|-----------10-10-10--9-9-9-----------|
E|------------8--8--8--7-7-7-----------|

"..I can't remember all the names, everyone you meet today is just so
fucking vain..."

Chorus

E|------------------------------------------|
B|------------------------------------------|
G|------------14-14-14--------------12-12-12|
D|-12-12-12---12-12-12---10-10-10---10-10-10|
A|-10-10-10---10-10-10----8--8--8----8--8--8|
E|--8--8--8---10-10-10----6--6--6----8--8--8|

"Bored again by hapiness and all those friends I've lost in there."

E|-1-------------------------------|
B|-2---5---------------------------|
G|-3---5---------------------------|
D|-3---5---------------------------|
A|-----3---------------------------|
E|---------------------------------|

"I've lost in there."

Repeat same progression for verse and chorus #2.


pre solo: (x) hit slighty , soft ...... [x] harmonics!

E|------------------------------------------[12]-[5]-[12]-[5]----|
B|---------------------------------------------------------------|
G|--(0)-(0/2)-(2/4)-(4/5)-(5/7)-(7/9)----------------------------|
D|---------------------------------------------------------------|
A|-------------------------------------*0*-----------------------|
E|---------------------------------------------------------------|

E|--------------------------------------------------------------|
B|--------------------------------------------------------------|
G|--7-9-7-9-7-9-7-9-7-10p9p7---2-4-2-4--12-12-12-10-10-10-10~~~-|
D|--0-0-0-0-0-0-0-0-0--0-0-0---0-0-0-0---0--0--0--0--0--0--0----|
A|--0-0-0-0-0-0-0-0-0--0-0-0---0-0-0-0---0--0--0--0--0--0--0----|
E|--------------------------------------------------------------|

E|--------------------------------------------------------------------|
B|---------------------------------------2/slide off the guitar neck--|
G|--7-9-7-9-7-9-7-9-7-10p9p7--2-4-2-4-2--2/slide off the guitar neck--|
D|--0-0-0-0-0-0-0-0-0--0-0-0--0-0-0-0-0-------------------------------|
A|--0-0-0-0-0-0-0-0-0--0-0-0--0-0-0-0-0-------------------------------|
E|--------------------------------------------------------------------|

E|--------------------------------------------------------------|
B|--------------------------------------------------------------|
G|--7-9-7-9-7-9-7-9-7-10p9p7--2-4-2-4-2--/12-12-14-10-10-12-9\--|
D|--0-0-0-0-0-0-0-0-0--0-0-0--0-0-0-0-0---0---0--0--0--0--0-0---|
A|--0-0-0-0-0-0-0-0-0--0-0-0--0-0-0-0-0---0---0--0--0--0--0-0---|
E|--------------------------------------------------------------|

E|-----------------------------|
B|-----------------------------|
G|--7-9-7-9-7-9-7-9-7-10p9p7---|
D|--0-0-0-0-0-0-0-0-0--0-0-0---|
A|--0-0-0-0-0-0-0-0-0--0-0-0---|
E|-----------------------------|
                                    OR
E|------------------------[5]-----|---------[5]-----|
B|----------------------------[5]-|--6---5------[5]-|
G|--------------------------------|--5---4----------|
D|------10-10-10--9-9-9-----------|--3---2------------|
A|------10-10-10--9-9-9-----------|--3---2------------|
E|-------8--8--8--7-7-7-----------|-------------------|

End Solo

(Solo tabbed by Jason (OLPKID), verses/chorus tabbed by ?)


Tap to rate this tab
# A B C D E F G H I J K L M N O P Q R S T U V W X Y Z