Guitaretab - guitar tabs
Song name
# A B C D E F G H I J K L M N O P Q R S T U V W X Y Z

Our Lady Peace - Waited tab

----------------------------------------------------------------------------
	                 WAITED - Our Lady Peace
----------------------------------------------------------------------------
Tabbed by: Branden Kirchmeyer
Email: RDlacroSSe1251@adelphia.net

Tuning:  Step Down (D# A# F# C# G# D#)

Intro:
[ Tab from: http://www.guitaretab.com/o/our-lady-peace/25367.html ]
e|---10--12h14--10------0---12--10--12h14--10------0---12------------------|
B|---10-------------10--11--10--10-------------10--11--14\-----------------|
G|---7--------------------------7------------------------------------------|
D|-------------------------------------------------------------------------|
A|-------------------------------------------------------------------------|
E|-------------------------------------------------------------------------|

Verse:
  Play this part 2 times
e|---------0-----------0------------------------------|------------|-------|
B|------3-----3-----3-----3-------3--------3--2--2h3--|--2--0------|--h2/7-|
G|---4-------------------------0--------0-------------|--------2h0-|-------|
D|---4------------------------------------------------|------------|-------|
A|---2-----------3------------------------------------|------------|-------|
E|---------------------------3-------2----------------|------------|-------|


| /  slide up
| \  slide down
| h  hammer-on
| p  pull-off
| ~  vibrato
| +  harmonic
| x  Mute note
============================================================================
Related for Waited tab