Song name
# A B C D E F G H I J K L M N O P Q R S T U V W X Y Z

Our Lady Peace - Lying Awake tab

Help us improve GuitareTab! Take a short survey!
Band: Death In December
Song: Chemistry And Heartache
Album: A Beautiful Tragedy
Tabbed By: Jean-Daniel Roy

Ok so im not 100% sure but at least 95% sure this is an really great tab!:)
Enjoi!

LISTEN TO THE SONG FOR THE BEAT!

Tuning: Down 1/2 Step

Intro: 

D#|------------------------------------------------|
A#|------------------------------------------------| 
F#|------------------------------------------------|
C#|-----0-------0-------0-----0-----0-----0--------|
G#|------------------------------------------------|
D#|-9-9---11-11---12-12---5-5---7-7---7-7----------| X6

Verse:

D#|----------------------------------------|
A#|----------------------------------------| 
F#|----------------------------------------|
C#|-9----11-/-12---5----7------------------|
G#|-9----11-/-12---5----7------------------|
D#|-9----11-/-12---5----7------------------| X4
   P.M.  P.M.P.M. P.M. P.M.
Chorus:

D#|-----------------|
A#|-----------------| 
F#|-----------------|      
C#|-2---5---0-------|   
G#|-2---5---0-------|
D#|-2---5---0-------| X4


Bridge #1:

D#|---------------------------------------------------------------------|
A#|---------------------------------------------------------------------| 
F#|------7p0-6p0-4p0-------7p0-6p0-4p0-----7p0-6p0-4p0----7p0-6p0-4p0---|
C#|---------------------------------------------------------------------|
G#|---------------------------------------------------------------------|
D#|--9-9-------------12-12-------------5-5-------------7-7--------------| X4



D#|----------------------------------------|
A#|----------------------------------------| 
F#|----------------------------------------|
C#|-9----11-/-12---5----7------------------|
G#|-9----11-/-12---5----7------------------|
D#|-9----11-/-12---5----7------------------| X4


Chorus:

D#|-----------------|
A#|-----------------| 
F#|-----------------|      
C#|-2---5---0-------|   
G#|-2---5---0-------|
D#|-2---5---0-------| X4

CLEAN PART

D#|----------------------------------------------|
A#|----------------------------------------------| 
F#|--------6-----6---6-----7------7---7----------| Somthing like that.. not 
C#|----0-0---0-0---0---0-0----0-0---0------------| sure..
G#|----------------------------------------------|
D#|----------------------------------------------|

This is the second guitar.. I think
D#|---------------------------------------|
A#|---------------------------------------| 
F#|-11---9---7----7-----------------------|
C#|-9----7---4-/--5-----------------------|
G#|-9----7---4-/--5-----------------------|
D#|-9----7---4-/--5-----------------------|


D#|------------------------------------------------|
A#|------------------------------------------------| 
F#|-11---9---7----7--7---7--7---7--7---7-----------|
C#|-9----7---4-/--5--4-/-5--4-/-5--4-/-5-----------|
G#|-9----7---4-/--5--4-/-5--4-/-5--4-/-5-----------|
D#|-9----7---4-/--5--4-/-5--4-/-5--4-/-5-----------|

D#|---------------------------------------|
A#|---------------------------------------| 
F#|-4----7--7-----------------------------|
C#|-2----5--7-----------------------------|
G#|-2----5--5-----------------------------|
D#|-2----5--------------------------------|  X3

D#|---------|
A#|---------|
F#|-4----7--|
C#|-2----5--|
G#|-2----5--|
D#|-2----5--|  

Chorus:

D#|-----------------|
A#|-----------------| 
F#|-----------------|      
C#|-2---5---0-------|   
G#|-2---5---0-------|
D#|-2---5---0-------|

It's sound like this, any correction post a comment with it and ill correct!
Related for Lying Awake tab