Song name
# A B C D E F G H I J K L M N O P Q R S T U V W X Y Z

Our Lady Peace - Concequence Of Laughing tab

  
transcripted by : Jason

tunning Eb Ab Db Gb Bb Eb

VERSE 
     guitar
is just one
   chord        bass on guitar
Eb|-----|---------------------------------------------|
Bb|-----|---------------------------------------------|
Gb|-----|---------------------------------------------|
Db|--5--|---------------------------------------------|
Ab|--5--|---------------------------------------------|
Eb|--3--|-3-0-3-0h3-0h3-0h3h5p3p0h3-0-3-0-3-0h3~~-----|
chorus       x2                 3rd time
Eb|--------------------------|--------------|
Bb|--------------------------|--------------|
Gb|--5-----------------------|--5-----------|
Db|--5-7-5-------------------|--5-7---------|
Ab|--3-7-5-------------------|--3-7--3--3---|
Eb|----5-3-1h3-1h3-1h3p1h3p1-|----5--1--0---|

   chord        and on guitar
Eb|-----|---------------------------------------------|
Bb|-----|---------------------------------------------|
Gb|-----|---------------------------------------------|
Db|--5--|---------------------------------------------|
Ab|--5--|---------------------------------------------|
Eb|--3--|-3-0-3-0h3-0h3-0h3h5p3p0h3-0-3-0-3-0h3~~-----|

chorus       x2                 3rd time
Eb|--------------------------|--------------|
Bb|--------------------------|--------------|
Gb|--5-----------------------|--5-----------|
Db|--5-7-5-------------------|--5-7---------|
Ab|--3-7-5-------------------|--3-7--3--3---|
Eb|----5-3-1h3-1h3-1h3p1h3p1-|----5--1--0---|

pre solo|  solo
        |
Eb|-----|---------------------------------------------------------------------
Bb|-----|---------------------------------------------------------------------
Gb|-----|---------------------------------------------------------------------
Db|--5--|---------------------------------------------------------------------
Ab|--5--|----------5---------------------------5-------5-7-5------------5-----
Eb|--3--|--7-7-5h7---7-5h7-7-5-7-8-7-5-7-7-5h7--7-5h7-7-----7-5h7-7-7-7--7-5h7
solo cont
Eb|------------------------|
Bb|------------------------|
Gb|------------------------|
Db|------------------------|
Ab|-------5-----5h7~~~~~---|
Eb|-7-7-7---7-5------------|

chorus       x2                 3rd time
Eb|--------------------------|--------------------|
Bb|--------------------------|--------------------|
Gb|--5-----------------------|--5----------7--5---|
Db|--5-7-5-------------------|--5-7--------7--5---|
Ab|--3-7-5-------------------|--3-7--3--3--5--3---|
Eb|----5-3-1h3-1h3-1h3p1h3p1-|----5--1--0---------|

   chord        and on bass
Eb|-----|---------------------------------------------|
Bb|-----|---------------------------------------------|
Gb|-----|---------------------------------------------|
Db|--5--|---------------------------------------------|
Ab|--5--|---------------------------------------------|
Eb|--3--|-3-0-3-0h3-0h3-0h3h5p3p0h3-0-3-0-3-0h3~~-----|


Tap to rate this tab
 
# A B C D E F G H I J K L M N O P Q R S T U V W X Y Z