Song name
# A B C D E F G H I J K L M N O P Q R S T U V W X Y Z

Our Lady Peace - Supersatellite tab

-------------------------------------------------------------------------------
			     Supersatellite - Our Lady Peace
-------------------------------------------------------------------------------
Tabbed by:HughF
Email:freemanfamily2005@hotmail.com

Tuning: Half-Step Down

 Intro:
eb|---------------------------------------------------------------------------|
Bb|---xx-9-7-xx---9-7-xx---9-7-88-8-8/9---xx---9-7-xx---9-7-xx---9-7----------|
Gb|---xx-9-7-xx---9-7-xx---9-7-66-6-6/7---xx---9-7-xx---9-7-xx---9-7-9--9~----|
Db|-9-xx-9-7-xx---9-7-xx---9-7------------xx---9-7-xx---9-7-xx---9-7-9--9~----|
Ab|-7-----------7--------7-------------------7--------7--------7-----7--7~----|
Eb|------------------------------------------------------------------0--0~----|

 Verse:
eb|---------------------------------------------------------------------------|
Bb|---------------------------------------------------------------------------|
Gb|-9-9-------9-7---------9-7-------------------------------------------------|
Db|-9-9-----6----6~-----6-----7-7-7--5-5--------------------------------------|
Ab|-7-7---7-----------7-------7-7-7--5-5--------------------------------------|
Eb|-0-0-----------------------5-5-5--3-3--------------------------------------|

 Pre-Chorus:
eb|---------------------------------------------------------------------------|
Bb|---------------------------------------------------------------------------|
Gb|--------------------------22-----------------------------------------------|
Db|-22------22-----22-----22-22-----------------------------------------------|
Ab|-22------22-----22-----22-00-----------------------------------------------|
Eb|-00-3+---00-3+--00-3+--00--------------------------------------------------|

 Chorus:
eb|---------------------------------------------------------------------------|
Bb|---------------------------------------------------------------------------|
Gb|---------------------------------------------------------------------------|
Db|-0222222202222222-022222220222-2-2-3---------------------------------------|
Ab|-0222222202222222-022222220222-2-2-3---------------------------------------|
Eb|-0000000000000000-000000000000-0-0-1---------------------------------------|
 pm................ ............

eb|---------------------------------------------------------------------------|
Bb|---------------------------------------------------------------------------|
Gb|---------------------------2-3---------------------------------------------|
Db|-0222222202222222-02222222-2-3-5-------------------------------------------|
Ab|-0222222202222222-02222222-0-1-5-------------------------------------------|
Eb|-0000000000000000-00000000-----3-------------------------------------------|
 pm................ ........

 Bridge:
eb|---------------------------------------------------------------------------|
Bb|---------------------------------------------------------------------------|
Gb|---------------------------------------------------------------------------|
Db|-7575757575757---57575757575-8~--------------------------------------------|
Ab|-7575757575757---57575757575-8~--------------------------------------------|
Eb|-5353535353535---35353535353-6~--------------------------------------------|

 then...

eb|---------------------------------------------------------------------------|
Bb|---------------------------------------------------------------------------|
Gb|---------------------------------------------------------------------------|
Db|-02222252-02220222-02222252-022202222--------------------------------------|
Ab|-02222222-02220222-02222222-022202222--------------------------------------|
Eb|---------------------------------------------------------------------------|
 pm........ ........ ........ .........


eb|---------------------------------------------------------------------------|
Bb|---------------------------------------------------------------------------|
Gb|---------------------------------------------------------------------------|
Db|-02222252-02220222-02222252------------------------------------------------|
Ab|-02222222-02220222-02222222------------------------------------------------|
Eb|--------------------------0------------------------------------------------|
 pm........ ........ .......

And that's it. Just put the pieces together.


| /  slide up
| \  slide down
| h  hammer-on
| p  pull-off
| ~  vibrato
| +  harmonic
| x  Mute note
===============================================================================
Tap to rate this tab
# A B C D E F G H I J K L M N O P Q R S T U V W X Y Z