Song name
# A B C D E F G H I J K L M N O P Q R S T U V W X Y Z

Our Lady Peace - The Wonderful Future tab

Hey, all! I couldn't find a tab that satisfied me for this song so I did my best to 
figure it out on my own. It sounds alright to me but I apologize if it is not satisfactory 
for you.

TUNING: 1/2 step down, drop D. e A# F# C# G# C#.

INTRO (lead):
d#----------10-7h10p7---------------10-7h10p7------|
A#--10-10-10---------8------10-10-10---------8-----|
F#-------------------------------------------------|
C#-------------------------------------------------|
G#-------------------------------------------------|
C#-------------------------------------------------|

                         End 1
----------10-7h10p7---------------------------|
--10-10-10---------8------10-10-10-8-10/12-10-|
----------------------------------------------|
----------------------------------------------|
----------------------------------------------|
----------------------------------------------|

End 2
------------------------------|
-10-8-10-12-10h12p10-8-8------|
------------------------------|
------------------------------|
------------------------------|
------------------------------|

INTRO (chords):
Alternate pick entire chords
Pretty sure a wah peddle is used

-----------------------------------------------|
---8--8--10------------------------------------|
---7--9--7-------------------------------------|
---5--5--7-------------------------------------|
-----------------------------------------------|
-----------------------------------------------|

Verse (chords):
Same as intro chords. Sometimes I fool around with the low E, but you can do whatever 
you want.

Pre-chorus: Same chords and picking patterns as the intro.

Chorus (lead):
This is what the distorted guitar plays during the chorus.

-----------------------------------------------|
-----------------------------------------------|
------------------0---0------------------------|
----4-4---4-4---4---4----x2--------------------|
-----------------------------------------------|
--5------2-----0-------------------------------|




These parts pretty much all repeat and if you listen to the song closely, this should be 
no problem.

Happy performing!
SP
Tap to rate this tab
 
# A B C D E F G H I J K L M N O P Q R S T U V W X Y Z