Song name
# A B C D E F G H I J K L M N O P Q R S T U V W X Y Z

Our Lady Peace - Is Anybody Home tab

Title: Is Anybody Home?
Band: Our Lady Peace
Album: Happiness...Is Not A Fish You Can Catch
Tabbed By: xWHATSERNAMEx
E-mail: dearly_beloved15@yahoo.com


 Chords
   F#m Ds2  E  As2 C#m7 A  D/A  Bm  G  C#5 G#5  B5 F#5
Eb--2---0---0---0---0---5---5---7---3------------------|
Bb--2---3---0---0---0---5---5---7---3------------------|
Gb--2---2---1---2---6---6---7---7---4---6-------4------|
Db--4---0---2---2---6---7---7---9---5---6---6---4---4--|
Ab--4-------2---0---4---7---5---9---5---4---6---2---4--|
Eb--2-------0-----------5---5---7---3-------4-------2--|


 Intro (acoustic)
F#m, Dsus2, E, Asus2
F#m, Dsus2, C#m7


Electric Guitar
   F#m         Dsus2            E          Asus2         F#m        Dsus2
Eb----------------------------|------------------------|-------------------|
Bb----13-14----13-14----------|---13-14----13-14-13-12-|---13-14----13-14--|
Gb----------11-------11-------|---------11-------------|---------11------11|
Db----------------------------|------------------------|-------------------|
Ab----------------------------|------------------------|-------------------|
Eb----------------------------|------------------------|-------------------|

   E         Asus2
Eb-----------------------|
Bb--13-14----13-14-13-12-|
Gb--------11-------------|
Db-----------------------|
Ab-----------------------|
Eb-----------------------|


 Verse
Eb|---------|---0-2-0---|-----------|---0-2-0-----0-4-0-|---0-2-0---0-2-0-|
Bb|---------|-----------|-----------|-----------0-------|-----------------|
Gb|---------|-----------|-----------|-------------------|-----------------|
Db|---------|-----------|-----------|-------------------|-----------------|
Ab|---------|-----------|-----------|-------------------|-----------------|
Eb|---------|-----------|-----------|-------------------|-----------------|


Eb----4-0---9--9--9--|---0-2-0---0-2-0-|---0-2-0---0--|
Bb--0-------10-10-10-|-----------------|--------------|
Gb-------------------|-----------------|---------6----|
Db-------------------|-4-------0-------|---------6----|
Ab-------------------|-----------------|-4-------4----|
Eb-------------------|-----------------|--------------|

 Chorus (normally done on keyboard)
Eb|----------------|---------------|---------------|-------10-------||
Bb|--------14------|-------14------|-------14------|----10------10--||
Gb|-----14------14-|----14------14-|----14------14-|----------------||
Db|----------------|-12------------|---------------|----------------||
Ab|--12------------|---------------|-14------------|-10-------------||
Eb|----------------|---------------|---------------|----------------||

 Played On Guitar
A, D/A, Bm, G, F#m


 Solo
Eb----------------------|-----------------------------|----------------------|
Bb----------------------|-----------14-14-14^-14^-14^-|----------------------|
Gb--12-13--12-13-13\----|-----------------------------|----------------------|
Db----------11------9-9-|-9-11-9-x-11-11-11-----------|-----2-2--------------|
Ab----------------------|-----------------------------|-2-4------------14----|
Eb----------------------|-----------------------------|----------------------|

Eb-------------|-----------------------|-----------------------------14-----|
Bb-------------|-----------------------|---------------12-12-12-14---12-----|
Gb-------------|-----12-13----12-13-16/|-4-6-6---11-11-11-13--x--x--x-/x----|
Db-14-14~~~-14-|-x-x-------11----------|-x/x-x-/-x--x--x-/x------9--9--9-11-|
Ab--16---------|-----------------------|-2-4-4-x-9--9--9--11-x-x------------|
Eb-------------|-----------------------|------------------------------------|


Eb--14-14-14-15-15-15-15-15-16-|-14----------------|
Bb--12-12-12-14-14-14-14-14-14-|-14----------------|
Gb-----------------------------|-------------------|
Db-----------------------------|-------------------|
Ab-----------------------------|-------------------|
Eb-----------------------------|-------------------|


 Outro
Eb--9--10-12-|
Bb--10-10-10-|
Gb-----------|
Db-----------|
Ab-----------|
Eb-----------|

Then the opening riff and end the song on a G.

Enjoy!
Tap to rate this tab
 
# A B C D E F G H I J K L M N O P Q R S T U V W X Y Z