Song name
# A B C D E F G H I J K L M N O P Q R S T U V W X Y Z

Our Lady Peace - In Repair tab

#----------------------------------PLEASE NOTE--------------------------------#
#This file is the author's own work and represents their interpretation of the#
#song. You may only use this file for private study, scholarship, or research.#
#-----------------------------------------------------------------------------#
#-- File created with Instab - http://www.pconline.com/~smcarey/instab.html --#
#-----------------------------------------------------------------------------#

Author/Artist: Our Lady Peace
Title: In Repair
Strum

Standard Tuning

------|-0----0----0----|--|-0---|-0----0----0-------0-|-----------------------|
------|-0----0----0----|--|-3---|-3----3----3-------3-|-----------------------|
------|-2----4----7----|--|-2---|-0----2----0-------2-|-----------------------|
------|-2----0----0----|--|-x---|-2----0----2-------x-|-----------------------|
------|-0----2----5----|--|-5---|-3----0----3-------5-|-----------------------|
------|-0----3----7----|--|-5---|-3----0----3-------5-|-----------------------|
       Intro Chords              Prechorus Chords

------|-0----0----0----0----|---------------------------------|---------------|
------|-0----0----2----0----|---------------------------------|---------------|
------|-0----0----3----0----|---------------------------------|---------------|
------|-2----0----x----2----|---------------------------------|---------------|
------|-2----2----5----3----|---------------------------------|---------------|
------|-0----3----5----3----|---------------------------------|---------------|
       Chorus Chords          "Lock the door..." Intro Chords

------|-0------------------------|--------------------------------------------|
------|-0------------------------|--------------------------------------------|
------|-5------------------------|--------------------------------------------|
------|-4------------------------|--------------------------------------------|
------|-3------------------------|--------------------------------------------|
------|-2------------------------|--------------------------------------------|
        Interlude "take this..."
Tap to rate this tab
 
# A B C D E F G H I J K L M N O P Q R S T U V W X Y Z