Song name
# A B C D E F G H I J K L M N O P Q R S T U V W X Y Z

Our Lady Peace - Happiness And The Fish tab

Artist: Our Lady Peace
Song: Happiness and the Fish
Added By Mikhailo

tab: Hapiness might not be a fish you can catch, but you can sure catch
this tab. You don't have to take my word for it!

This song is played half a step down.


Intro

E|-------------------------------------|
B|--2-2-2-2--1-1-1-1--2-2-2------------|
G|---2-2-2-2--2-2-2-2--2-2-2-----------|
D|-------------------------------------|
A|-------------------------------------|
E|-------------------------------------|

"...without the mess, addiction leaves you sad to day and
unimpressed...."

Pre Chorus

E|-------------------------------/12---|
B|--1-1-1------------------------/12---|
G|--2-2-2------------------------------|
D|--2-2-2----10-10-10--9-9-9-----------|
A|-----------10-10-10--9-9-9-----------|
E|------------8--8--8--7-7-7-----------|

"..I can't remember all the names, everyone you meet today is just so
fucking vain..."

Chorus

E|------------------------------------------|
B|------------------------------------------|
G|------------14-14-14--------------12-12-12|
D|-12-12-12---12-12-12---10-10-10---10-10-10|
A|-10-10-10---10-10-10----8--8--8----8--8--8|
E|--8--8--8---10-10-10----6--6--6----8--8--8|

"Bored again by hapiness and all those friends I've lost in there."

E|-1-------------------------------|
B|-2---5---------------------------|
G|-3---5---------------------------|
D|-3---5---------------------------|
A|-----3---------------------------|
E|---------------------------------|

"I've lost in there."

Repeat same progression for verse and chorus #2.
Tap to rate this tab
 
# A B C D E F G H I J K L M N O P Q R S T U V W X Y Z