Song name
# A B C D E F G H I J K L M N O P Q R S T U V W X Y Z

Our Lady Peace - 4 Am tab

Ok, so ive seen all the other tabs, and they seemed "non-novice" to me, and i was just
of the people just starting to play the guitar, so i decided to make an accurate
tab for 4 am. So, i hope you like. Here you go. (i dont know simple way of the solo, so 
just going to leave that out)

Olps song, nothing to do with me. Theres, not mine. No belongy to me. I no own this
OLP cant sue me. Hahahahaha! anyways. GO on.

Tabbed by Tom

INTRO
e|------------------|
B|------------------|
G|6-6-6666-2-2-2222-|
D|6-6-6666-2-2-2222-|
A|4-4-4444-0-0-0000-|
E|------------------|

VERSE
e|------------------|
B|------------------|
G|6-6-6666-2-2-2222-|
D|6-6-6666-2-2-2222-|X2
A|4-4-4444-0-0-0000-|
E|------------------|

PRE-CHORUS
e|-----------|
B|-----------|
G|-----------|
D|-3-3-3-3-6-|              At the end just play around with the last note
A|-3-3-3-3-6-|
E|-1-1-1-1-4-|

CHORUS
e|-------------|
B|-------------|
G|-----2-2-4-4-|
D|-2-2-2-2-4-4-|x3
A|-2-2-0-0-2-2-|         Again just play around with the last note
E|-0-0---------|

e|-----------|
B|-----------|
G|-777-666-4-|
D|-777-666-4-|         And once again play around with the last note
A|-555-444-2-|
E|-----------|


And back to the top! lol. Thank you. Once again, OUR LADY PEACE'S song not mine. Thank you

 Tom.
Tap to rate this tab
# A B C D E F G H I J K L M N O P Q R S T U V W X Y Z