Song name
# A B C D E F G H I J K L M N O P Q R S T U V W X Y Z

Our Lady Peace - Clumsy tab

-----------------------------------------------------------------------------
                             CLUMSY - Our Lady Peace
-----------------------------------------------------------------------------
Tabbed by: winniethedjedi
E-mail:

Tuning: Half-Step Down

This tab is based on David Harrison's and Dave D'Uva's tabs of this song.
It's by no means perfect or comprehensive, so feel free to tweak it further.

Intro
Eb|-----12--14--16-------12--14--16-------12--14--16--19-||
Bb|------------------------------------------------------||
Gb|-14---------------13---------------14-----------------||
Db|------------------------------------------------------||
Ab|------------------------------------------------------||
Eb|------------------------------------------------------||

Verse (strumming)
   AaddF#  E       B
Eb-0-----|-0-----|-------|------||
Bb-0-----|-0-----|-------|------||
Gb-2-----|-1-----|-4-----|------||
Db-2-----|-2-----|-4-----|------||
Ab-0-----|-2-----|-2-----|------||
Eb-2-----|-0-----|-------|------||

Pre-chorus
   A        Ab     A        B        F#
Eb----------------------------------------------||
Bb-10-10----9-9----10-10----12-12----7-7----7-7-||
Gb-9--9-----8-8----9--9-----11-11----6-6----6-6-||
Db-7--7-----6-6----7--7-----9--9-----4-4----4-4-||
Ab----------------------------------------------||
Eb----------------------------------------------||

Chorus
  C#       A      E        B
e---------------------0------------|
B-----5--------2--------0------4---|
G-6-----6----2-------------------4-|
D-6-6------2-----------------4-----|
A-4--------0--------2------2-------|
E-----------------0----------------|

 C#        A      E B        
e----------------------------------|
B-----5--------2------4------------|
G-------6----2----------4----4---4-|
D---6------2-------------------4---|
A-4--------0------2-2------2-------|
E-----------------0----------------|

  A       C#      E         AaddF#
e-----0----------------0----0---||
B-------2----------------0--0---||
G---------6--6--------------2---||
D-2-2-----6--6----2---------2---||
A-0-------4--4----2--2------0---||
E-----------------0---------2---||

Post-chorus A
  A   E   B   F#
e-0---0---------||
B-2---0---------||
G-2---1---4-----||
D-2---2---4---4-||
A-0---2---2---4-||
E-0---0-------2-||

Post-chorus B
  A   E   B
e-0---0-----||
B-2---0-----||
G-2---1---4-||
D-2---2---4-||
A-0---2---2-||
E-0---0-----||

Bridge                            (x3)
E|-3--3--0--2----5--5--7--4--2--0--2-|
B|-----------------------------------|
G|-----------------------------------|
D|-----------------------------------|
A|-----------------------------------|
E|-----------------------------------|

E|-3--3--0--2--2--0--2--0-||
B|------------------------||
G|------------------------||
D|------------------------||
A|------------------------||
E|------------------------||

Pre-chorus (soft)
   A       Ab      A       B       F#
E|-------|-------|-------|-------||
B|-------|-------|-------|-------||
G|-------|-------|-------|-------||
D|-7-----|-6-----|-7-----|-9-----||
A|-7-----|-6-----|-7-----|-9-----||
E|-5-----|-4-----|-5-----|-7-----||

Intro
Verse x6
Pre-chorus
Chorus
Post-chorus A
Post-chorus B
Verse x4
Pre-chorus
Chorus
Post-chorus A
Post-chorus B (last chord interrupted by bridge)
Bridge
Pre-chorus (soft)
Chorus
Post-chorus A x8
Post-chorus B

************************************

| /   slide up
| \   slide down
| h   hammer-on
| p   pull-off
| ~   vibrato
| +   harmonic
| x   Mute note
| b   Bend
| pb  Pre-bend
| br  Bend release
| pbr Pre-bend release
| brb Bend release bend

************************************
Tap to rate this tab
 
# A B C D E F G H I J K L M N O P Q R S T U V W X Y Z