Song name
# A B C D E F G H I J K L M N O P Q R S T U V W X Y Z

Our Lady Peace - Bring Back The Sun tab

Our Lady Peace - Bring Back The Sun

tabbed by Andreas Schwarz

Eb-Tuning

INTRO:
                 
e|---------------------|---------------------|
B|---------------------|-------------------2-|
G|-----------2-2-2-4-1-|-----------2-2-2-4-1-|
D|-----0h4---4-4-4-4-2-|-----0h4---4-4-4-4-2-|
A|-0h4-------4-4-4-4-2-|-0h4-------4-4-4-4-2-|
E|--------2--2-2-2-2-0-|--------2--2-2-2-2-0-|
        
e|---------------------|-------------------------|
B|---------------------|-------------------2-0-0-|
G|-----------2-2-2-4-1-|-----------2-2-2-4-1-1-1-|
D|-----0h4---4-4-4-4-2-|-----0h4---4-4-4-4-2-2-2-|
A|-0h4-------4-4-4-4-2-|-0h4-------4-4-4-4-2-2-2-|
E|--------2--2-2-2-2-0-|--------2--2-2-2-2-0-0-0-|

VERSE:
         
e|---------------------|-----------------------0---|
B|---------------------|-------------------2-0---0-|
G|-----------2-2-2-4-1-|-----------2-2-2-4-1-------|
D|-----0h4---4-4-4-4-2-|-----0h4---4-4-4-4-2-------|
A|-0h4-------4-4-4-4-2-|-0h4-------4-4-4-4-2-------|
E|--------2--2-2-2-2-0-|--------2--2-2-2-2-0-------|

e|---------------------|--------------------------|
B|---------------------|-------------------2-2-0--|
G|-----------2-2-2-4-1-|-----------2-2-2-4-1-1-1--|
D|-----------4-4-4-4-2-|-----0h4---4-4-4-4-2-2-2--|
A|-----------4-4-4-4-2-|-0h4-------4-4-4-4-2-2-2--|
E|--------2--2-2-2-2-0-|--------2--2-2-2-2-0-0-0--|

e|---------------------|------------------------|
B|---------------------|-------------------2-0--|
G|-----------2-2-2-4-1-|-----------2-2-2-4-1-1--|
D|-----0h4---4-4-4-4-2-|-----0h4---4-4-4-4-2-2--|
A|-0h4-------4-4-4-4-2-|-0h4-------4-4-4-4-2-2--|
E|--------2--2-2-2-2-0-|--------2--2-2-2-2-0-0--|

e|---------------------|-----------------------0-|
B|---------------------|-------------------2-0---|
G|-----------2-2-2-4-1-|-----------2-2-2-4-1-1---|
D|-----0h4---4-4-4-4-2-|-----0h4---4-4-4-4-2-2---|
A|-0h4-------4-4-4-4-2-|-0h4-------4-4-4-4-2-2---|
E|--------2--2-2-2-2-0-|--------2--2-2-2-2-0-0---|

CHORUS:

e|-------0---------0---|-------0-------0-------|
B|--0-----0---0-----0--|--0-----0---0---0--0---|
G|---6-----6---6-------|---6-----4---4---4--4--|
D|----7-----7---7------|----6-----6---6---6--6-|
A|---------------------|-----------------------|
E|-5-------------------|-4---------------------|


e|--0--------0-------|-0-------0------0--------|
B|----0--0----0--0---|--0--0-0--0--0-0-0---0---|
G|-----2--2----2--2--|---1--1----1--1---1-1----|
D|------4--4----4--4-|----2-------2------2-----|
A|-------------------|-------------------------|
E|-(2)---------------|-------------------------|

repeat

SOLO:

e|------------------------------------------------------------------------|
B|-----------------------------7---7---7-7/9-7-5~--5-5\3-3\2-2---2-3-2----|
G|-1/6-6-6--6-6h7-7p6-6\4--4-4---4---4------------------------2-4-----4-2-|
D|------------------------------------------------------------------------|
A|------------------------------------------------------------------------|
E|------------------------------------------------------------------------|

e|--------------------|-------5----0-5b7r5-5-4~-4-4\2-2------|
B|--------------------|---------------------------------5-5--|
G|-2-2-2\1-1b2r1------|-4/6~-6-6-6---------------------------|
D|---------------2/4-2|--------------------------------------|
A|--------------------|--------------------------------------|
E|--------------------|--------------------------------------|

e|----------------------------------------------------------------|
B|-5-5b7-5-5b7-5-2b3-5-5b7-3-3\2-2h3-2p0--------------------------|
G|--------------------------------------2--2-1-2-1h2p1------------|
D|----------------------------------------------------2-----------|
A|-----------------------------------------------------2--2-2-----|
E|----------------------------------------------------------------|


Intro
Verse
Chorus
Verse
Chorus
Solo
Bridge (Same as Chorus)
Chorus
Outro

Tap to rate this tab
# A B C D E F G H I J K L M N O P Q R S T U V W X Y Z