Song name
# A B C D E F G H I J K L M N O P Q R S T U V W X Y Z

Our Lady Peace - Random Donkey tab

Verse   (1 and 2)                X3               Chorus
--------------------------------------------------3-3-3-3-3-3-2-2-2-2-2-2-2-|
--------------------------------------------3-3-3-3-3-3-3-3-3-3-3-3-3-3-3-3-|
--------------------------------------------3-3-3-------------2-2-2-2-2-2-2-|
-2-2-2h3--2-2-2h3-2-2-2h3--xh2--|X3---then--3-3-3---------------------------|
-0-0-0----0-0-0---0-0-0----xh2--|X3---------------2-2-2-2-2-2---------------|
--------------------------------------------------3-3-3-3-3-3---------------|

Verse 2

Chorus

Bridge                   X3
-2-2-1-1-------------------------------------------------------------------|
-3-3-2-2-------------------------------------------------------------------|
-2-2-2-2-------------------------------------------------------------------|
---------2-2-2-2-2-2-2-2---------------------------------------------------|
---------2-2-2-2-2-2-2-2---------------------------------------------------|
---------------------------------------------------------------------------|
Chorus(heavy)

Great song by the liquids hope to see some more hits on the way
Tap to rate this tab
 
# A B C D E F G H I J K L M N O P Q R S T U V W X Y Z