Song name
# A B C D E F G H I J K L M N O P Q R S T U V W X Y Z

Our Lady Peace - Kiss On The Mouth tab

This is of the new c.d. good song....

intro/verse

Guitar 1
E-------------------------------------|
B---6-4------6-4------6-4-------------|
G------5---------6--------5----5-3-5--|b
D-3--------4--------3--------3--------|
A-------------------------------------|
E-------------------------------------|

Guitar 2
E---------------|
B---------------|
G---------------|
D---------------|    (strum as needed)
A--3-4-6-8------|
E--1-2-4-6------|


Chorus (Both Guitars)

E-------------|
B-------------|
G-------------|      (again strum as needed, different pattern from intro)
D-------------|
A--3-4-6-8----|
E--1-2-4-6----|


then there's this slow part....

E--------------------------------------------------|
B--------------------------------------------------|
G--------------------------------------------------|
D----------------------------------6--6---5--------|
A------------------------------------8--8---8--8-8-|
E--4-8-6-9-----4-8-6-9---4-8-6-9-------------------|


Order of song

Intro/Verse
Chorus
Intro/Verse
Chorus
Slower part
Intro/Verse (only once)
Chorus x2 and first line once more
Slower part x2

enjoy... any comments or question send 'em to webejammin182@hotmail.com
Tap to rate this tab
# A B C D E F G H I J K L M N O P Q R S T U V W X Y Z