Guitaretab - guitar tabs
Song name
# A B C D E F G H I J K L M N O P Q R S T U V W X Y Z

Our Lady Peace - Wipe That Smile Off Your Face Acousticcover tab

Hey guys, this is the awesome acoustic version of the song by the band Our Lady Peace 
by Saving Nations. ENJOY!!


Tuning: EADGBe

Intro(x2)

e|----------------------------------------------------|
B|----------------------------------------------------|
G|---7-7-7-7--7---6-6-6-6--6---4-4-4-4--4---7-7--7---6|
D|----------------------------------------------------|
A|----------------------------------------------------|
E|---7-7-7-7---7--5-5-5-5---5--3-3-3-3---3--7-7---7--5|


Verse 1:

e|----------------------------------------------------|
B|----------------------------------------------------|
G|---7-7-7-7--7---6-6-6-6--6---4-4-4-4--4---7-7--7---6|
D|----------------------------------------------------|
A|----------------------------------------------------|
E|---7-7-7-7---7--5-5-5-5---5--3-3-3-3---3--7-7---7--5|

It's just the two of us
A silver cross
And some strength that you won't believe


e|----------------------------------------------------|
B|----------------------------------------------------|
G|---7-7-7-7--7---6-6-6-6--6---4-4-4-4--4---7-7--7---6|
D|----------------------------------------------------|
A|----------------------------------------------------|
E|---7-7-7-7---7--5-5-5-5---5--3-3-3-3---3--7-7---7--5|

See I'm not your friend
And I won't pretend
That I've come here for peace

Verse 2:

e|----------------------------------------------------|
B|----------------------------------------------------|
G|---7-7-7-7--7---6-6-6-6--6---4-4-4-4--4---7-7--7---6|
D|----------------------------------------------------|
A|----------------------------------------------------|
E|---7-7-7-7---7--5-5-5-5---5--3-3-3-3---3--7-7---7--5|

Well I'm not afraid
I'm gonna make you pay
I'm gonna wipe that smile off your face...


Chorus:

e|----------------------------|
B|----------------------------|
G|---7--7--7--7--7--7--7--7---|
D|----------------------------|
A|----------------------------|
E|----7--7--7--7--7--7--7--7--|

and this is war...

e|----------------------------|
B|----------------------------|
G|---6--6--6--6--6--6--6--6---|
D|----------------------------|
A|----------------------------|
E|----5--5--5--5--5--5--5--5--|

now...

e|----------------------------|
B|----------------------------|
G|---7--7--6--6--6---4--4--6--|
D|----------------------------|
A|----------------------------|
E|---7--7--5--5---5--3--3--5--|

i'm gonna wipe that smile off your face.


Bridge:

e|----------------------------------------------------|
B|----------------------------------------------------|
G|---7-7-7-7--7---6-6-6-6--6---4-4-4-4--4---7-7--7---6|
D|----------------------------------------------------|
A|----------------------------------------------------|
E|---7-7-7-7---7--5-5-5-5---5--3-3-3-3---3--7-7---7--5|

e|----------------------------------------------------|
B|----------------------------------------------------|
G|----------------------------------------------------|
D|--0--0--0--0--0--0--0--0----0--0--0--0--0--0--0--0--|
A|----------------------------------------------------|
E|---7--7--7--7--7--7--7--7----5--5--5--5--5--5--5--5-|

[ Tab from: http://www.guitaretab.com/o/our-lady-peace/88177.html ]
e|----------------------------------------------------|
B|----------------------------------------------------|
G|----------------------------------------------------|
D|--0--0--0--0--0--0--0--0----0---6----6--------------|
A|----------------------------------------------------|
E|---3--3--3--3--3--3--3--3----7----5--5--------------|


Verse 4:


e|----------------------------------------------------|
B|----------------------------------------------------|
G|---7-7-7-7--7---6-6-6-6--6---4-4-4-4--4---7-7--7---6|
D|----------------------------------------------------|
A|----------------------------------------------------|
E|---7-7-7-7---7--5-5-5-5---5--3-3-3-3---3--7-7---7--5|

The time has come
To drop the bomb
On all the pain you've been selling


e|----------------------------------------------------|
B|----------------------------------------------------|
G|---7-7-7-7--7---6-6-6-6--6---4-4-4-4--4---7-7--7---6|
D|----------------------------------------------------|
A|----------------------------------------------------|
E|---7-7-7-7---7--5-5-5-5---5--3-3-3-3---3--7-7---7--5|

See I don't like you
Or your attitude
Or the company that you keep

Chorus(x2):

e|----------------------------|
B|----------------------------|
G|---7--7--7--7--7--7--7--7---|
D|----------------------------|
A|----------------------------|
E|----7--7--7--7--7--7--7--7--|

and this is war...


e|----------------------------|
B|----------------------------|
G|---6--6--6--6--6--6--6--6---|
D|----------------------------|
A|----------------------------|
E|----5--5--5--5--5--5--5--5--|

now...


e|----------------------------|
B|----------------------------|
G|---7--7--6--6--6---4--4--6--|
D|----------------------------|
A|----------------------------|
E|---7--7--5--5---5--3--3--5--|

i'm gonna wipe that smile off your face.


e|----------------------------------------------------|
B|----------------------------------------------------|
G|---7-7-7-7--7---6-6-6-6--6---4-4-4-4--4---7-7--7---6|
D|----------------------------------------------------|
A|----------------------------------------------------|
E|---7-7-7-7---7--5-5-5-5---5--3-3-3-3---3--7-7---7--5|

It's just the two of us
A silver cross
And some strength that you won't believe


e|----------------------------------------------------|
B|----------------------------------------------------|
G|---7-7-7-7--7---6-6-6-6--6---4-4-4-4--4---7-7--7---6|
D|----------------------------------------------------|
A|----------------------------------------------------|
E|---7-7-7-7---7--5-5-5-5---5--3-3-3-3---3--7-7---7--5|

Well I'm not afraid
I'm gonna make you pay
I'm gonna wipe that smile off your face


Chorus:

e|----------------------------|
B|----------------------------|
G|---7--7--7--7--7--7--7--7---|
D|----------------------------|
A|----------------------------|
E|----7--7--7--7--7--7--7--7--|

and its war...


e|----------------------------|
B|----------------------------|
G|---6--6--6--6--6--6--6--6---|
D|----------------------------|
A|----------------------------|
E|----5--5--5--5--5--5--5--5--|

now...


e|------------------------------------|
B|------------------------------------|
G|---7--7--6--6--6---4--4--6--7-------|
D|------------------------------------|
A|------------------------------------|
E|---7--7--5--5---5--3--3--5--7-------|

i'm gonna wipe that smile off your face.
Related for Wipe That Smile Off Your Face Acousticcover tab
Advertisement will be closed in 10 seconds