Song name
# A B C D E F G H I J K L M N O P Q R S T U V W X Y Z

Our Last Night - Dreamcatcher tab

Watch the video to figure out the pattern and strumming
http://youtube.com/watch?v=w7wsOJnahxc
This is my first tab hope you enjoy it


e|---------------------------------------------------------------------|
B|---------------------------------------------------------------------|
G|----------7--7---------7--7------------7---8-----------7----------9--|
D|-8---10---x--x--8--10--x--x---8---10---x---x---8--10---x---0--0---x--|
A|-8---10---5--5--8--10--5--5---8---10---5---6---8--10---5---0--0---5--|
E|-8---10---------8--10---------8---10-----------8--10-------0--0------|

e|------------------------------------------------------------------------|
B|----------------------------------11h12 p 11 p9-------------------------|
G|---------------------7-9-11-12------------------------------------7--9--|
D|-7---9---5--7---4----x-x-x--x-----------------------------7-9--10-------|
A|-7---9---5--7---4----5-7-9--10--------------------7-9-10----------------|
E|-7---9---5--7---4-------------------------------------------------------|

e|------------------------------------------------------------------------------------|
B|---------------------------------------------2h3 2----------------------------------|
G|----------------------7--9---------9----9----------4/5-----------7------------------|
D|-8---10---------7-9-10------0-0----x----x------------------------x------------------|
A|-8---10---7-9-10------------0-0----5----5-----------------7h8p7--5------------------|
E|-8---10---------------------0-0-----------------------------------------------------|

Chords G and an Em (watch the video most of the parts repeat)

e|-----------------------------------------------------------------------------|
B|----------------------------------------------------12b----------------------|
G|------------------------7--9------------7------------------------------------|
D|------------7--9--10--------------------x------------------------------------|
A|--7-9--10-------------------------7h8p7 5------------------------------------|
E|-----------------------------------------------------------------------------|

If you have any question contact me on my youtube page youtube.com/endingswithtragedy or 
myspace page myspace.com/tragedyisbroken.
Email adress: omarrmian@yahoo.com
Tap to rate this tab
 
# A B C D E F G H I J K L M N O P Q R S T U V W X Y Z