Guitaretab - guitar tabs
Song name
# A B C D E F G H I J K L M N O P Q R S T U V W X Y Z

Our Last Night - Dreamcatcher tab

i Tab here thefirst part of the song.. i wish i had more time to finish itbut it's hard, 
i decided to post only the intro :D
song: dreamcatcher
tuning:
Db Ab Db Gb Bb Eb
[ Tab from: http://www.guitaretab.com/o/our-last-night/184118.html ]
|---------00000000---------0000/0000---------00000000-000000/-0-0-0-0-0-0\00-|
|---------55555555---------5555/8888---------55555555-888888/101010101010\33-|
|----------------------------------------------------------------------------|
|-222/555----------222/555-----------222/555---------------------------------|
|-222/555----------222/555-----------222/555---------------------------------|
|-222/555----------222/555-----------222/555---------------------------------|

|00/0 \0/0-|---------------------00----0/00---------------|
|33/5 \3/5-|---------------------55----3/55---------------|
|----------|--------0-0------------------------------9999-|X2
|----------|2/12\2---4-4--7/9--22----22------5/7-2-4------|
|----------|2/12\2--------5/7--22----22------3/5-2-2/7777-|
|----------|2/12\2-------------22----22----------2--------|
                               ..    ..
Related for Dreamcatcher tab
Advertisement will be closed in 10 seconds