Guitaretab - guitar tabs
Song name
# A B C D E F G H I J K L M N O P Q R S T U V W X Y Z

Our Last Night - Timing Is Everything tab

SONG: Timing Is Everything
BAND: Our Last Night
ALBUM: The Ghosts Among Us
TUNING: Db  Ab  Db  Gb  Bb - Eb
Hope it sounds right guys. If you like it
please rate it : )
Guitar 1 (Right Speaker)
--------------------------------------------------------------
INTRO
|--0-0-0-0-0-0-0-0-0-0-0-0-0-0-0-0--|
|--4-4-4-4-4-4-4-4-4-4-4-4-4-4-4-4--|
|-----------------------------------|
|-----------------------------------|
|-----------------------------------|
|-----------------------------------|

|--0-0-0-0-0-0-0-0-0-0-0-0--x-x-x-x--|
|--4-4-4-4-4-4-4-4-4-4-4-4--x-x-x-x--|
|---------------------------x-x-x-x--|
|---------------------------x-x-x-x--|
|------------------------------------|
|------------------------------------|

|--0-0-0-0-0-0-0-0-0-0-0-0-0-0-0-0--|
|--4-4-4-4-4-4-4-4-4-4-4-4-4-4-4-4--|
|-----------------------------------|
|-----------------------------------|
|-----------------------------------|
|-----------------------------------|

|--0-0-0-0-0-0-0-0-0-0-0-0-------|
|--4-4-4-4-4-4-4-4-4-4-4-4-------|
|-----------------------------6--|
|-----------------------------6--|
|-----------------------------4--|
|--------------------------------|

|-----------------------------------|\
|-----------------------------------||
|--6-6-6-6-6-6-6-6-6-6-6-6-6-6-6-6--||	
|--6-6-6-6-6-6-6-6-6-6-6-6-6-6-6-6--||REPEAT
|--4-4-4-4-4-4-4-4-4-4-4-4-4-4-4-4--||
|-----------------------------------|/

|-----------------------------------|\
|-----------------------------------||
|--4-4-4-4-4-4-4-4-4-4-4-4-4-4-4-4--||
|--4-4-4-4-4-4-4-4-4-4-4-4-4-4-4-4--||REPEAT
|--2-2-2-2-2-2-2-2-2-2-2-2-2-2-2-2--||
|-----------------------------------|/

|-----------------------------------|\
|-----------------------------------||
|--6-6-6-6-6-6-6-6-6-6-6-6-6-6-6-6--||	
|--6-6-6-6-6-6-6-6-6-6-6-6-6-6-6-6--||REPEAT
|--4-4-4-4-4-4-4-4-4-4-4-4-4-4-4-4--||
|-----------------------------------|/

|-----------------------------------|\
|-----------------------------------||
|--4-4-4-4-4-4-4-4-4-4-4-4-4-4-4-4--||
|--4-4-4-4-4-4-4-4-4-4-4-4-4-4-4-4--||REPEAT
|--2-2-2-2-2-2-2-2-2-2-2-2-2-2-2-2--||
|-----------------------------------|/

|-----------------------------------|\
|-----------------------------------||
|--2-2-2-2-2-2-2-2-2-2-2-2-2-2-2-2--||
|--2-2-2-2-2-2-2-2-2-2-2-2-2-2-2-2--||REPEAT
|--0-0-0-0-0-0-0-0-0-0-0-0-0-0-0-0--||
|-----------------------------------|/

|-----------------------------------|\
|-----------------------------------||
|--4-4-4-4-4-4-4-4-4-4-4-4-4-4-4-4--||
|--4-4-4-4-4-4-4-4-4-4-4-4-4-4-4-4--||REPEAT
|--2-2-2-2-2-2-2-2-2-2-2-2-2-2-2-2--||
|-----------------------------------|/

VERSE
|--0-0-0-0---0-0-0-0----0----0----0-0-0-0--|
|--4-4-4-4---4-4-4-4----4----4----4-4-4-4--|
|--6-6-6-6---6-6-6-6----6----6----6-6-6-6--|
|--6-6-6-6---6-6-6-6----6----6----6-6-6-6--|
|------------------------------------------|
|------------------------------------------|

|----------------------|
|----------------------|
|-------------4-4-4-4--|
|--------4----4-4-4-4--|
|-----4-------2-2-2-2--|
|--4-------------------|

|--0-0-0-0---0-0-0-0----0----0----0-0-0-0--|
|--4-4-4-4---4-4-4-4----4----4----4-4-4-4--|
|--6-6-6-6---6-6-6-6----6----6----6-6-6-6--|
|--6-6-6-6---6-6-6-6----6----6----6-6-6-6--|
|------------------------------------------|
|------------------------------------------|

|--------------------------------|
|--------------------------------|
|------------------4----4-4-4-4--|
|--------6------2-------4-4-4-4--|
|-----4------0----------2-2-2-2--|
|--4-----------------------------|

|-----------------------------------|\
|-----------------------------------||
|-----------------------------------||
|-----------------------------------||REPEAT
|--0-0-0-0-0-0-0-0-0-0-0-0-0-0-0-0--||
|-----------------------------------|/

|------------------------------------------|
|------------------------------------------|
|---------------------------------4-4-4-4--|
|--4-4-4-4-4-4-4-4--2-2-2-2-2-2---4-4-4-4--|
|--4-4-4-4-4-4-4-4--2-2-2-2-2-2---2-2-2-2--|
|--4-4-4-4-4-4-4-4--2-2-2-2-2-2------------|

|-----------------------------------|\
|-----------------------------------||
|--2-2-2-2-2-2-2-2-2-2-2-2-2-2-2-2--||
|--2-2-2-2-2-2-2-2-2-2-2-2-2-2-2-2--||REPEAT
|--0-0-0-0-0-0-0-0-0-0-0-0-0-0-0-0--||
|-----------------------------------|/

|-------------------------------------------|
|-------------------------------------------|
|--------------------------------4-4-4-4-4--|
|--4-4-4-4----4-4-4----2-2--2----4-4-4-4-4--|
|--4-4-4-4----4-4-4----2-2--2----2-2-2-2-2--|
|--4-4-4-4----4-4-4----2-2--2---------------|

|-----------------|
|-----------------|
|--------4--------|
|-----2------x-x--|
|--0---------x-x--|
|------------x-x--|

CHORUS
|----------------------------|\
|----------------------------||
|----------------------------||
|--2-2-2-2--2-2-2-2-2-2-2-2--||
|--2-2-2-2--2-2-2-2-2-2-2-2--||
|--2-2-2-2--2-2-2-2-2-2-2-2--||
					|REPEAT
|----------------------------||
|----------------------------||
|--2-2-2-2--2-2-2-2-2-2-2-2--||
|--2-2-2-2--2-2-2-2-2-2-2-2--||
|--0-0-0-0--0-0-0-0-0-0-0-0--||
|----------------------------|/

|-----------------------------------|
|-----------------------------------|
|--6-6-6-6-6-6-6-6-6-6-6-6-6-6-6-6--|
|--6-6-6-6-6-6-6-6-6-6-6-6-6-6-6-6--|
|--4-4-4-4-4-4-4-4-4-4-4-4-4-4-4-4--|
|-----------------------------------|

|-----------------------------------|
|-----------------------------------|
|--4-4-4-4-4-4-4-4-4-4-4-4-4-4-4-4--|
|--4-4-4-4-4-4-4-4-4-4-4-4-4-4-4-4--|
|--2-2-2-2-2-2-2-2-2-2-2-2-2-2-2-2--|
|-----------------------------------|

|-----------------------------------|
|-----------------------------------|
|--2-2-2-2-2-2-2-2-2-2-2-2-2-2-2-2--|
|--2-2-2-2-2-2-2-2-2-2-2-2-2-2-2-2--|
|--0-0-0-0-0-0-0-0-0-0-0-0-0-0-0-0--|
|-----------------------------------|

|-----------------------------------|
|-----------------------------------|
|--8-8-8-8-8-8-8-8-8-8-8-8-8-8-8-8--|
|--x-x-x-x-x-x-x-x-x-x-x-x-x-x-x-x--|
|--6-6-6-6-6-6-6-6-6-6-6-6-6-6-6-6--|
|-----------------------------------|

VERSE
|--0-0-0-0---0-0-0-0----0----0----0-0-0-0--|
|--4-4-4-4---4-4-4-4----4----4----4-4-4-4--|
|--6-6-6-6---6-6-6-6----6----6----6-6-6-6--|
|--6-6-6-6---6-6-6-6----6----6----6-6-6-6--|
|------------------------------------------|
|------------------------------------------|

|----------------------|
|----------------------|
|--------2----------4--|
|-----2----------4-----|
|--0----------2--------|
|----------------------|

|--0-0-0-0---0-0-0-0----0----0----0-0-0-0--|
|--4-4-4-4---4-4-4-4----4----4----4-4-4-4--|
|--6-6-6-6---6-6-6-6----6----6----6-6-6-6--|
|--6-6-6-6---6-6-6-6----6----6----6-6-6-6--|
|------------------------------------------|
|------------------------------------------|

|------------------------------|
|------------------------------|
|--13\11-11-11/13-13-13/11--9--|
|---x--x--x--x--x--x--x--x--x--|
|--11\-9--9--9/11-11-11/-9--7--|
|------------------------------|

|----------------------------------------------------|
|----------------------------------------------------|
|--16-16-16-16-16-16-16\11-11-11-11-11--13-13-13-13--|
|---x--x--x--x--x--x--x--x--x--x--x--x---x--x--x--x--|
|--14-14-14-14-14-14-14\-9--9--9--9--9--11-11-11-11--|
|----------------------------------------------------|

|-----------------------------------|\
|-----------------------------------||
|--2-2-2-2-2-2-2-2-2-2-2-2-2-2-2-2--||
|--2-2-2-2-2-2-2-2-2-2-2-2-2-2-2-2--||REPEAT
|--0-0-0-0-0-0-0-0-0-0-0-0-0-0-0-0--||
|-----------------------------------|/

|-----------------------------------|\
|-----------------------------------||
|--4-4-4-4-4-4-4-4-4-4-4-4-4-4-4-4--||
|--4-4-4-4-4-4-4-4-4-4-4-4-4-4-4-4--||REPEAT
|--2-2-2-2-2-2-2-2-2-2-2-2-2-2-2-2--||
|-----------------------------------|/

|-----------------------------------|\
|-----------------------------------||
|--2-2-2-2-2-2-2-2-2-2-2-2-2-2-2-2--||
|--2-2-2-2-2-2-2-2-2-2-2-2-2-2-2-2--||REPEAT
|--0-0-0-0-0-0-0-0-0-0-0-0-0-0-0-0--||
|-----------------------------------|/

|-----------------------------------|\
|-----------------------------------||
|--4-4-4-4-4-4-4-4-4-4-4-4-4-4-4-4--||
|--4-4-4-4-4-4-4-4-4-4-4-4-4-4-4-4--||REPEAT
|--2-2-2-2-2-2-2-2-2-2-2-2-2-2-2-2--||
|-----------------------------------|/

|-------------------------------------|\
|-------------------------------------||
|--------6--------4----2--2-2-2--2-2--||
|-----6--------4-------2--2-2-2--2-2--||REPEAT X4
|--4--------2----------0--0-0-0--0-0--||
|-------------------------------------|/
pm                        . .
CHORUS
|----------------------------|\
|----------------------------||
|----------------------------||
|--2-2-2-2--2-2-2-2-2-2-2-2--||
|--2-2-2-2--2-2-2-2-2-2-2-2--||
|--2-2-2-2--2-2-2-2-2-2-2-2--||
					|REPEAT
|----------------------------||
|----------------------------||
|--2-2-2-2--2-2-2-2-2-2-2-2--||
|--2-2-2-2--2-2-2-2-2-2-2-2--||
|--0-0-0-0--0-0-0-0-0-0-0-0--||
|----------------------------|/

|-----------------------------------|
|-----------------------------------|
|--6-6-6-6-6-6-6-6-6-6-6-6-6-6-6-6--|
|--6-6-6-6-6-6-6-6-6-6-6-6-6-6-6-6--|
|--4-4-4-4-4-4-4-4-4-4-4-4-4-4-4-4--|
|-----------------------------------|

|-----------------------------------|
|-----------------------------------|
|--4-4-4-4-4-4-4-4-4-4-4-4-4-4-4-4--|
|--4-4-4-4-4-4-4-4-4-4-4-4-4-4-4-4--|
|--2-2-2-2-2-2-2-2-2-2-2-2-2-2-2-2--|
|-----------------------------------|

|-----------------------------------|
|-----------------------------------|
|--2-2-2-2-2-2-2-2-2-2-2-2-2-2-2-2--|
|--2-2-2-2-2-2-2-2-2-2-2-2-2-2-2-2--|
|--0-0-0-0-0-0-0-0-0-0-0-0-0-0-0-0--|
|-----------------------------------|

|---------------------------------------------------|
|---------------------------------------------------|
|--11-11-11-11-11-11-11-11-11-11-11-11-11-11-11-11--|
|---x--x--x--x--x--x--x--x--x--x--x--x--x--x--x--x--|
|---9--9--9--9--9--9--9--9--9--9--9--9--9--9--9--9--|
|---------------------------------------------------|
BRIDGE
|-------------------------------|
|-------------------------------|
|--2---------------2------------|
|--2---------------2------------|
|--0---------------0------------|
|-------------------------------|

|-------------------------------|
|-------------------------------|
|--6---------------4------------|
|--6---------------4------------|
|--4---------------2------------|
|-------------------------------|

|--0-0-0-0-0-0-0-0--0-0-0-0-0-0-0-0--|\
|--4-4-4-4-4-4-4-4--4-4-4-4-4-4-4-4--||
|------------------------------------||
|------------------------------------||
|------------------------------------||
|------------------------------------||
						  |
|--0-0-0-0-0-0-0-0----0-0-0-0-0-0-0--||
|--7-7-7-7-7-7-7-7----2-2-2-2-2-2-2--||
|------------------------------------||
|------------------------------------||REPEAT
|------------------------------------||
|------------------------------------||
						  |
|--0-0-0-0-0-0-0-0----0-0-0-0-0-0-0--||
|--0-0-0-0-0-0-0-0----4-4-4-4-4-4-4--||
|------------------------------------||
|------------------------------------||
|------------------------------------||
|------------------------------------|/

|---------------------------------|\
|----0---0---0---0---0---0---0----| \
|--8---8---8---8---8---8---8---8--|  \
|---------------------------------|   \
|---------------------------------|    \
|---------------------------------|     \
						     \REPEAT
|-----------------------------------------|\
|-----0----0----0----0----0----0----0-----||
|--11---11---11---11---13---13---13---13--||
|-----------------------------------------||
|-----------------------------------------||
|-----------------------------------------|/

|---------------------------------|
|----0---0---0---0---0---0---0----|
|--8---8---8---8---8---8---8---8--|
|---------------------------------|
|---------------------------------|
|---------------------------------|

|-----------------------P-------|
|-----0----0----0-------A-------|
|--11---11---11---11----U-------|
|-----------------------S-------|
|-----------------------E-------|
|-----------------------!-------|
CHORUS
|-----------------------------------|\
|-----------------------------------| \
|--9-9-9-9-9-9-9-9-9-9-9-9-9-9-9-9--|  \
|--x-x-x-x-x-x-x-x-x-x-x-x-x-x-x-x--|   \
|--7-7-7-7-7-7-7-7-7-7-7-7-7-7-7-7--|    \
|-----------------------------------|     \
							 \
|------------------------------------|       \
|------------------------------------|        \
|--8-8-8-8-8-8-8\6--6-6-6-6-6-6-6-6--|         \
|--x-x-x-x-x-x-x-x--x-x-x-x-x-x-x-x--|           \
|--6-6-6-6-6-6-6/4--4-4-4-4-4-4-4-4--|             \
|------------------------------------|              \
								     |REPEAT
|---------------------------------------------------||
|---------------------------------------------------||
|--13-13-13-13-13-13-13-13-13-13-13-13-13-13-13-13--||
|---x--x--x--x--x--x--x--x--x--x--x--x--x--x--x--x--||
|--11-11-11-11-11-11-11-11-11-11-11-11-11-11-11-11--||
|---------------------------------------------------||
								     |
|---------------------------------------------------||
|---------------------------------------------------||
|--11-11-11-11-11-11-11-11-11-11-11-11-11-11-11-11--||
|---x--x--x--x--x--x--x--x--x--x--x--x--x--x--x--x--||
|---9--9--9--9--9--9--9--9--9--9--9--9--9--9--9--9--||
|---------------------------------------------------||
								     |
|---------------------------------------------------||
|---------------------------------------------------||
|--13-13-13-13-13-13-13-13-13-13-13-13-13-13-13-13--||
|---x--x--x--x--x--x--x--x--x--x--x--x--x--x--x--x--||
|--11-11-11-11-11-11-11-11-11-11-11-11-11-11-11-11--||
|---------------------------------------------------||
								     |
|---------------------------------------------------||
|---------------------------------------------------||
|--11-11-11-11-11-11-11-11-11-11-11-11-11-11-11-11--||
|---x--x--x--x--x--x--x--x--x--x--x--x--x--x--x--x--||
|---9--9--9--9--9--9--9--9--9--9--9--9--9--9--9--9--||
|---------------------------------------------------|/

|-----------------------------------|
|-----------------------------------|
|--9-9-9-9-9-9-9-9-9-9-9-9-9-9-9-9--|
|--x-x-x-x-x-x-x-x-x-x-x-x-x-x-x-x--|
|--7-7-7-7-7-7-7-7-7-7-7-7-7-7-7-7--|
|-----------------------------------|

|-----------------------------------|
|-----------------------------------|
|--8-8-8-8-8-8-8-8-8-8-8-8-8-8-8-8--|
|--x-x-x-x-x-x-x-x-x-x-x-x-x-x-x-x--|
|--6-6-6-6-6-6-6-6-6-6-6-6-6-6-6-6--|
|-----------------------------------|

|----------------------|
|---------------E------|
|--9------------N------|
|--x------------D------|
|--7-------------------|
|----------------------|
[ Tab from: http://www.guitaretab.com/o/our-last-night/192239.html ]
Guitar 2 (Left Speaker)
-------------------------------------------------
INTRO
|--0------0------0------0------7--------|
|----4------4------4------4------5---5--|
|------6------6------6------6------6----|
|---------------------------------------|
|---------------------------------------|
|---------------------------------------|
pm . . .  . . .  . . .  . . .    . . .
|--0------0------0------0------0-----P--|
|----4------4------4------4------4---A--|
|------6------6------6------6--------U--|
|------------------------------------S--|
|------------------------------------E--|
|------------------------------------!--|
pm . . .  . . .  . . .  . . .  . .
|--0------0------0------0------7--------|
|----4------4------4------4------5---5--|
|------6------6------6------6------6----|
|---------------------------------------|
|---------------------------------------|
|---------------------------------------|
pm . . .  . . .  . . .  . . .    . . .
|--0------0------0------0------0--------|
|----4------4------4------4------4------|
|------6------6------6------6--------6--|
|------------------------------------6--|
|------------------------------------4--|
|---------------------------------------|
pm . . .  . . .  . . .  . . .  . .

VERSE
|-----------------------------------|\
|-----------------------------------||
|--6-6-6-6-6-6-6-6-6-6-6-6-6-6-6-6--||REPEAT
|--6-6-6-6-6-6-6-6-6-6-6-6-6-6-6-6--||
|--4-4-4-4-4-4-4-4-4-4-4-4-4-4-4-4--||
|-----------------------------------|/

|-----------------------------------|
|-----------------------------------|
|--9-9-9-9-9-9-9-9-9-9-9-9-9-9-9-9--|
|--x-x-x-x-x-x-x-x-x-x-x-x-x-x-x-x--|
|--7-7-7-7-7-7-7-7-7-7-7-7-7-7-7-7--|
|-----------------------------------|

|-----------------------------------------------|
|-----------------------------------------------|
|--9-9-9-9-9-9-9-9--11-11-11-11-11-11--8-8-8-8--|
|--x-x-x-x-x-x-x-x---x--x--x--x--x--x--x-x-x-x--|
|--7-7-7-7-7-7-7-7---9--9--9--9--9--9--6-6-6-6--|
|-----------------------------------------------|

|--0-0-0-0-0-0-0-0-0-0-0-0-0-0-0-0--|\
|--0-0-0-0-0-0-0-0-0-0-0-0-0-0-0-0--||
|--6-6-6-6-6-6-6-6-6-6-6-6-6-6-6-6--||REPEAT
|--6-6-6-6-6-6-6-6-6-6-6-6-6-6-6-6--||
|--4-4-4-4-4-4-4-4-4-4-4-4-4-4-4-4--||
|-----------------------------------|/

|-----------------------------------|\
|-----------------------------------||
|--9-9-9-9-9-9-9-9-9-9-9-9-9-9-9-9--||REPEAT
|--x-x-x-x-x-x-x-x-x-x-x-x-x-x-x-x--||
|--7-7-7-7-7-7-7-7-7-7-7-7-7-7-7-7--||
|-----------------------------------|/

|-----------------------------------|\
|-----------------------------------||
|--2-2-2-2-2-2-2-2-2-2-2-2-2-2-2-2--||
|--2-2-2-2-2-2-2-2-2-2-2-2-2-2-2-2--||REPEAT
|--0-0-0-0-0-0-0-0-0-0-0-0-0-0-0-0--||
|-----------------------------------|/

|---------------------------------------------------|\
|---------------------------------------------------||
|--16-16-16-16-16-16-16-16-16-16-16-16-16-16-16-16--||
|---x--x--x--x--x--x--x--x--x--x--x--x--x--x--x--x--||REPEAT
|--14-14-14-14-14-14-14-14-14-14-14-14-14-14-14-14--||
|---------------------------------------------------|/

VERSE
|--0-0-0-0---0-0-0-0----0----0----0-0-0-0--|
|--4-4-4-4---4-4-4-4----4----4----4-4-4-4--|
|--6-6-6-6---6-6-6-6----6----6----6-6-6-6--|
|--6-6-6-6---6-6-6-6----6----6----6-6-6-6--|
|------------------------------------------|
|------------------------------------------|

|----------------------|
|----------------------|
|-------------4-4-4-4--|
|--------4----4-4-4-4--|
|-----4-------2-2-2-2--|
|--4-------------------|

|--0-0-0-0-0-0-0-0-0-0-0-0-0-0-0-0--|\
|--4-4-4-4-4-4-4-4-4-4-4-4-4-4-4-4--||
|-----------------------------------||REPEAT
|-----------------------------------||
|-----------------------------------||
|-----------------------------------|/

|--------------------------------|
|--------------------------------|
|------------------4----4-4-4-4--|
|--------6------2-------4-4-4-4--|
|-----4------0----------2-2-2-2--|
|--4-----------------------------|

|------------------------------------------|
|------------------------------------------|
|--2-2-2-2----2-2-2----2-2--2---2-2-2-2-2--|
|--2-2-2-2----2-2-2----2-2--2---2-2-2-2-2--|
|--0-0-0-0----0-0-0----0-0--0---0-0-0-0-0--|
|------------------------------------------|

|--0-0-0-0-0-0-0-0-0-0-0-0-0-0-0-0-0--|
|--4/5-5-5-5-5-5-5-5-5-5-5-5-5-5-5-5--|
|-------------------------------------|
|-------------------------------------|
|-------------------------------------|
|-------------------------------------|

|--0-0-0-0-0-0-0-0-0-0-0-0--0-0-0-0--|
|--4-4-4-4-4-4-4-4-4-4-4-4--9-9-9-9--|
|------------------------------------|
|------------------------------------|
|------------------------------------|
|------------------------------------|

|---------------------------------------------------|
|---------------------------------------------------|
|--13-13-13-13-13-13-13-13-13-13-13-13-13-13-13-13--|
|---x--x--x--x--x--x--x--x--x--x--x--x--x--x--x--x--|
|--11-11-11-11-11-11-11-11-11-11-11-11-11-11-11-11--|
|---------------------------------------------------|

|---------------------------------------------|
|---------------------------------------------|
|--6-6-6-6-6-6-6-6--13-13-13-13--11-11-11-11--|
|--x-x-x-x-x-x-x-x---x--x--x--x---x--x--x--x--|
|--4-4-4-4-4-4-4-4--11-11-11-11---9--9--9--9--|
|---------------------------------------------|

|--0-0-0-0-0-0-0-0-0-0-0-0-0-0-0-0-0--|
|--4/5-5-5-5-5-5-5-5-5-5-5-5-5-5-5-5--|
|-------------------------------------|
|-------------------------------------|
|-------------------------------------|
|-------------------------------------|

|--0-0-0-0-0-0-0-0-0-0-0-0--0-0-0-0--|
|--4-4-4-4-4-4-4-4-4-4-4-4--9-9-9-9--|
|------------------------------------|
|------------------------------------|
|------------------------------------|
|------------------------------------|

|-----------------|
|-----------------|
|--------4--------|
|-----2------x-x--|
|--0---------x-x--|
|------------x-x--|

CHORUS
|----------------------------|\
|--5-5-5-5--5-5-5-5-5-5-5-5--||
|--4-4-4-4--4-4-4-4-4-4-4-4--||
|--2-2-2-2--2-2-2-2-2-2-2-2--||
|--2-2-2-2--2-2-2-2-2-2-2-2--||
|--2-2-2-2--2-2-2-2-2-2-2-2--||
					|REPEAT
|--0-0-0-0--0-0-0-0-0-0-0-0--||
|--0-0-0-0--0-0-0-0-0-0-0-0--||
|--2-2-2-2--2-2-2-2-2-2-2-2--||
|--2-2-2-2--2-2-2-2-2-2-2-2--||
|--0-0-0-0--0-0-0-0-0-0-0-0--||
|----------------------------|/

|--0------0------0------0------0--------|
|----4------4------4------4------4---4--|
|------6------6------6------6------6----|
|---------------------------------------|
|---------------------------------------|
|---------------------------------------|
pm . . .  . . .  . . .  . . .  . . . .
|--0------0------0------0------0--------|
|----4------4------4------4------4------|
|------6------6------6------6-----------|
|---------------------------------------|
|---------------------------------------|
|---------------------------------------|
pm . . .  . . .  . . .  . . .  . .

|-----------------------------------|
|-----------------------------------|
|--2-2-2-2-2-2-2-2-2-2-2-2-2-2-2-2--|
|--2-2-2-2-2-2-2-2-2-2-2-2-2-2-2-2--|
|--0-0-0-0-0-0-0-0-0-0-0-0-0-0-0-0--|
|-----------------------------------|

|-----------------------------------|
|-----------------------------------|
|--4-4-4-4-4-4-4-4-4-4-4-4-4-4-4-4--|
|--4-4-4-4-4-4-4-4-4-4-4-4-4-4-4-4--|
|--2-2-2-2-2-2-2-2-2-2-2-2-2-2-2-2--|
|-----------------------------------|

VERSE
|--0-0-0-0---0-0-0-0----0----0----0-0-0-0--|
|--4-4-4-4---4-4-4-4----4----4----4-4-4-4--|
|--6-6-6-6---6-6-6-6----6----6----6-6-6-6--|
|--6-6-6-6---6-6-6-6----6----6----6-6-6-6--|
|------------------------------------------|
|------------------------------------------|

|--0---0---0---0---0---0---0---0----|
|----9---9---9---9---7---7---7---7--|
|-----------------------------------|
|-----------------------------------|
|-----------------------------------|
|-----------------------------------|

|--0-0-0-0---0-0-0-0----0----0----0-0-0-0--|
|--4-4-4-4---4-4-4-4----4----4----4-4-4-4--|
|--6-6-6-6---6-6-6-6----6----6----6-6-6-6--|
|--6-6-6-6---6-6-6-6----6----6----6-6-6-6--|
|------------------------------------------|
|------------------------------------------|

|------0-----------------0---------|
|--------4-----------------4-------|
|----------6-----------------6-----|
|-------------7-----------------4--|
|--0-----------------2-------------|
|----------------------------------|

|-----------------------------------|
|-----------------------------------|
|--2-2-2-2-2-2-2-2-2-2-2-2-2-2-2-2--|
|--2-2-2-2-2-2-2-2-2-2-2-2-2-2-2-2--|
|--0-0-0-0-0-0-0-0-0-0-0-0-0-0-0-0--|
|-----------------------------------|
 
|--------------------------------------------|
|--------------------------------------------|
|--9-9-9-9-9-9-9-9--11-11-11-11-11-11-11-11--|
|--x-x-x-x-x-x-x-x---x--x--x--x--x--x--x--x--|
|--7-7-7-7-7-7-7-7---9--9--9--9--9--9--9--9--|
|--------------------------------------------|

|--4h5p4-------------7------------|
|---------5---5/7-5----5-5-5-5/7--|
|-----------6---------------------|
|---------------------------------|
|---------------------------------|
|---------------------------------|
pm          .   
|--4h5p4-------------7---7/9-9-9-9--|
|---------5---5/7-5----5------------|
|-----------6-----------------------|
|-----------------------------------|
|-----------------------------------|
|-----------------------------------|
pm          .
|-------------------------------------|\
|-------------------------------------||
|--------6--------4----2--2-2-2--2-2--||
|-----6--------4-------2--2-2-2--2-2--||REPEAT X4
|--4--------2----------0--0-0-0--0-0--||
|-------------------------------------|/
pm                        . .

CHORUS
|----------------------------|\
|--5-5-5-5--5-5-5-5-5-5-5-5--||
|--4-4-4-4--4-4-4-4-4-4-4-4--||
|--2-2-2-2--2-2-2-2-2-2-2-2--||
|--2-2-2-2--2-2-2-2-2-2-2-2--||
|--2-2-2-2--2-2-2-2-2-2-2-2--||
					|REPEAT
|--0-0-0-0--0-0-0-0-0-0-0-0--||
|--0-0-0-0--0-0-0-0-0-0-0-0--||
|--2-2-2-2--2-2-2-2-2-2-2-2--||
|--2-2-2-2--2-2-2-2-2-2-2-2--||
|--0-0-0-0--0-0-0-0-0-0-0-0--||
|----------------------------|/

|--0------0------0------0------0--------|
|----4------4------4------4------4---4--|
|------6------6------6------6------6----|
|---------------------------------------|
|---------------------------------------|
|---------------------------------------|
pm . . .  . . .  . . .  . . .  . . . .
|--0------0------0------0------0--------|
|----4------4------4------4------4------|
|------6------6------6------6-----------|
|---------------------------------------|
|---------------------------------------|
|---------------------------------------|
pm . . .  . . .  . . .  . . .  . .

|-----------------------------------|
|-----------------------------------|
|--2-2-2-2-2-2-2-2-2-2-2-2-2-2-2-2--|
|--2-2-2-2-2-2-2-2-2-2-2-2-2-2-2-2--|
|--0-0-0-0-0-0-0-0-0-0-0-0-0-0-0-0--|
|-----------------------------------|

|-----------------------------------|
|-----------------------------------|
|--4-4-4-4-4-4-4-4-4-4-4-4-4-4-4-4--|
|--4-4-4-4-4-4-4-4-4-4-4-4-4-4-4-4--|
|--2-2-2-2-2-2-2-2-2-2-2-2-2-2-2-2--|
|-----------------------------------|

BRIDGE
|--------------------------------|
|--11h12-----------11h12---------|
|---------11/13-----------11/13--|
|--------------------------------|
|--------------------------------|
|--------------------------------|

|--------------------12--------11--------|
|--11h12----------------12--------12-----|
|---------11/13\6----------11--------11--|
|----------------------------------------|
|----------------------------------------|
|----------------------------------------|

|--------------------------------11-----|
|--11h12-----------11h12------------12--|
|---------11/13-----------11/13---------|
|---------------------------------------|
|---------------------------------------|
|---------------------------------------|

|--0-0-0-0-0-0-0-0--0-0-0-0-0-0-0---12--------11--------|
|--7-7-7-7-7-7-7-7--5-5-5-5-5-5-5------12--------12-----|
|-----------------------------------------11--------11--|
|-------------------------------------------------------|
|-------------------------------------------------------|
|-------------------------------------------------------|

|--------------------------------|
|--11h12-----------11h12---------|
|---------11/13-----------11/13--|
|--------------------------------|
|--------------------------------|
|--------------------------------|

|--12-11-----------------7-------|
|--------12----5/7\5\2-----------|
|--------------------------------|
|--------------------------------|
|--------------------------------|
|--------------------------------|

|----G-------|
|----U-------|
|----I--O----|
|----T--N----|
|----A--E----|
|----R-------|

|--0-0-0-0---0-0-0-0----0----0----0-0-0-0--|\
|--4-4-4-4---4-4-4-4----4----4----4-4-4-4--||
|--6-6-6-6---6-6-6-6----6----6----6-6-6-6--||REPEAT
|--6-6-6-6---6-6-6-6----6----6----6-6-6-6--||
|------------------------------------------||
|------------------------------------------|/

CHORUS
|----------------------------|\
|--5-5-5-5--5-5-5-5-5-5-5-5--||
|--4-4-4-4--4-4-4-4-4-4-4-4--||
|--2-2-2-2--2-2-2-2-2-2-2-2--||
|--2-2-2-2--2-2-2-2-2-2-2-2--||
|--2-2-2-2--2-2-2-2-2-2-2-2--||
					|REPEAT
|--0-0-0-0--0-0-0-0-0-0-0-0--||
|--0-0-0-0--0-0-0-0-0-0-0-0--||
|--2-2-2-2--2-2-2-2-2-2-2-2--||
|--2-2-2-2--2-2-2-2-2-2-2-2--||
|--0-0-0-0--0-0-0-0-0-0-0-0--||
|----------------------------|/

|-----------------------------------|
|-----------------------------------|
|--6-6-6-6-6-6-6-6-6-6-6-6-6-6-6-6--|
|--6-6-6-6-6-6-6-6-6-6-6-6-6-6-6-6--|
|--4-4-4-4-4-4-4-4-4-4-4-4-4-4-4-4--|
|-----------------------------------|

|-----------------------------------|
|-----------------------------------|
|--4-4-4-4-4-4-4-4-4-4-4-4-4-4-4-4--|
|--4-4-4-4-4-4-4-4-4-4-4-4-4-4-4-4--|
|--2-2-2-2-2-2-2-2-2-2-2-2-2-2-2-2--|
|-----------------------------------|
pm                 . . . . . . . .

|----------------------------|\
|--5-5-5-5--5-5-5-5-5-5-5-5--||
|--4-4-4-4--4-4-4-4-4-4-4-4--||
|--2-2-2-2--2-2-2-2-2-2-2-2--||
|--2-2-2-2--2-2-2-2-2-2-2-2--||
|--2-2-2-2--2-2-2-2-2-2-2-2--||
					|REPEAT
|--0-0-0-0--0-0-0-0-0-0-0-0--||
|--0-0-0-0--0-0-0-0-0-0-0-0--||
|--2-2-2-2--2-2-2-2-2-2-2-2--||
|--2-2-2-2--2-2-2-2-2-2-2-2--||
|--0-0-0-0--0-0-0-0-0-0-0-0--||
|----------------------------|/

|-----------------------------------|
|-----------------------------------|
|--6-6-6-6-6-6-6-6-6-6-6-6-6-6-6-6--|
|--6-6-6-6-6-6-6-6-6-6-6-6-6-6-6-6--|
|--4-4-4-4-4-4-4-4-4-4-4-4-4-4-4-4--|
|-----------------------------------|

|-----------------------------------|
|-----------------------------------|
|--4-4-4-4-4-4-4-4-4-4-4-4-4-4-4-4--|
|--4-4-4-4-4-4-4-4-4-4-4-4-4-4-4-4--|
|--2-2-2-2-2-2-2-2-2-2-2-2-2-2-2-2--|
|-----------------------------------|

|-------------------------------|
|-------------------------------|
|--2--------------2-2-2---------|
|--2--------------2-2-2---------|
|--0--------------0-0-0---------|
|-------------------------------|

|-------------------------------|
|--------------------------E----|
|--4--------------2--------N----|
|--4--------------2--------D----|
|--2--------------0--------!----|
|-------------------------------|

Guitar 3 (LAST CHORUS ONLY)
|----------------------------------|
|--11h12-----------11h12-----------|
|---------11/13-----------11/13\6--|
|----------------------------------|
|----------------------------------|
|----------------------------------|

|------------------12--------11--------|
|--11h12--------------12--------12-----|
|---------11/13----------11--------11--|
|--------------------------------------|
|--------------------------------------|
|--------------------------------------|

|--------------------------------|
|--11h12-----------11h12---------|
|---------11/13-----------11/13--|
|--------------------------------|
|--------------------------------|
|--------------------------------|
Related for Timing Is Everything tab