Song name
# A B C D E F G H I J K L M N O P Q R S T U V W X Y Z

Our Last Night - Symptoms Of A Failing System tab

#----------------------------------PLEASENOTE------------------------------#
#This file is the author's own work and represents their interpretation of # #the song. 
You may only use this file for private study, scholarship, or   # #research.             
                                                    #
#--------------------------------------------------------------------------#
                          SYMPTOMS OF A FAILING SYSTEM
                          As recorded by Our Last Night
                    (From the 2008 Album THE GHOSTS AMONG US)

Music by Our Last Night
Transcribed by Marc Gianatiempo

I decided to tab this song out myself because the ones that were up had too many 
mistakes in them for me to ignore :P You won't find a more accurate tab! I also posted the 
Power Tab version for anyone interested.

Gtr I (C# G# C# F# A# D#) - 'Right Channel'
Gtr II (C# G# C# F# A# D#) - 'Left Channel'

 Intro
  Q=182
 4/4
  Gtr I
         PM--------|           PM
  E E Q  S S S S S S  E    +E  E  Q  E E Q    E E Q  E E Q
|-----------------------|-------------------|---------------|
|--------------------10-|-(10)---10---------|---4-4---------|
|-----------------------|-------------------|---7-7---------|
|-5-3-5---------------8-|--(8)----8--5-3-5--|--------5-3-5--|
|-5-3-5--0-0-0-0-0-0----|------0-----5-3-5--|--------5-3-5--|
|-5-3-5--0-0-0-0-0-0----|------0-----5-3-5--|--------5-3-5--|
|
| Gtr II
|        PM--------|           PM
| E E Q  S S S S S S  E    +E  E  Q  E E Q    E E Q  E E Q
|-----------------------|-------------------|---------------|
|--------------------10-|-(10)---10---------|---4-4---------|
|-----------------------|-------------------|---7-7---------|
|-5-3-5---------------8-|--(8)----8--5-3-5--|--------5-3-5--|
|-5-3-5--0-0-0-0-0-0----|------0-----5-3-5--|--------5-3-5--|
|-5-3-5--0-0-0-0-0-0----|------0-----5-3-5--|--------5-3-5--|


  PM--------|     PM      PM                PM--------|     PM
  S S S S S S  Q  E  Q    E  E  Q  E E Q    S S S S S S  Q  E  Q
|-----------------------|-----------------|-----------------------|
|-------------10----10--|---11------------|-------------10----10--|
|-----------------------|------14---------|-----------------------|
|--------------8-----8--|----------5-3-5--|--------------8-----8--|
|-0-0-0-0-0-0-----0-----|-0--------5-3-5--|-0-0-0-0-0-0-----0-----|
|-0-0-0-0-0-0-----0-----|-0--------5-3-5--|-0-0-0-0-0-0-----0-----|
|
| PM--------|     PM      PM                PM--------|     PM
| S S S S S S  Q  E  Q    E  E  Q  E E Q    S S S S S S  Q  E  Q
|-----------------------|-----------------|-----------------------|
|-------------10----10--|---11------------|-------------10----10--|
|-----------------------|------14---------|-----------------------|
|--------------8-----8--|----------5-3-5--|--------------8-----8--|
|-0-0-0-0-0-0-----0-----|-0--------5-3-5--|-0-0-0-0-0-0-----0-----|
|-0-0-0-0-0-0-----0-----|-0--------5-3-5--|-0-0-0-0-0-0-----0-----|


  PM               PM--------|     PM
  E E E E E E Q    S S S S S S  Q  E  Q    E E E E E E Q     E E E E E E Q
|----------------|-----------------------|-----------------|------------------|
|----------------|-------------10----10--|-----------------|------------------|
|---3---3--------|-----------------------|---3---3---------|---3---3----------|
|-----7---5-3-5--|--------------8-----8--|-----7-----------|-----7------------|
|-0-------5-3-5--|-0-0-0-0-0-0-----0-----|-----------------|------------------|
|-0-------5-3-5--|-0-0-0-0-0-0-----0-----|-----------------|------------------|
|
| PM               PM--------|     PM
| E E E E E E Q    S S S S S S  Q  E  Q    E E E Q   E E E   E E E Q   E E E
|----------------|-----------------------|-----------------|------------------|
|----------------|-------------10----10--|-----------------|------------------|
|---0---0--------|-----------------------|-----------3---3-|-----------3---3--|
|-----3---5-3-5--|--------------8-----8--|-------------7---|-------------7----|
|-0-------5-3-5--|-0-0-0-0-0-0-----0-----|-----------------|------------------|
|-0-------5-3-5--|-0-0-0-0-0-0-----0-----|-----------------|------------------|


   Verse
                   |-3-| |-3--| |-3--| |-3--|
    Q  E Q.   Q    E E E E E  E E E  E E E  E   Q  E Q.   Q
||---------------|----------------------------|---------------|
||o--------------|----------------------------|---------------|
||-------7-------|----------------------------|------7--------|
||--5----8----5--|-------7h8h10---------------|-5----8----5---|
||o-5---------5--|-5h6h8---------------7h8h10-|-5---------5---|
||--5---------5--|--------------7h8h10--------|-5---------5---|
|
|                  |-3-| |-3--| |-3--| |-3--|
|   Q  E Q.   Q    E E E E E  E E E  E E E  E   Q  E Q.   Q
||---------------|----------------------------|---------------|
||o--------------|----------------------------|---------------|
||-------7-------|----------------------------|------7--------|
||--5----8----5--|-------7h8h10---------------|-5----8----5---|
||o-5---------5--|-5h6h8---------------7h8h10-|-5---------5---|
||--5---------5--|--------------7h8h10--------|-5---------5---|


                            PM------------|
  E  E  E   E E  E E  E     E E E E E E E E
|------------------------||-----------------|
|----8p=6---------------o||-----------------|
|-------------3h=7-------||-----------------|
|----------h8------5h=7--||-8-8-8-8-8-8-8-8-|
|-----------------------o||-----------------|
|------------------------||-----------------|
|
|                           PM------------|
| E  E  E   E E  E E  E     E E E E E E E E
|------------------------||-----------------|
|---11p10---------------o||-----------------|
|-------------7h10-------||-7-7-7-7-7-7-7-7-|
|---------h12------8h10--||-----------------|
|-----------------------o||-----------------|
|------------------------||-----------------|


                   Chorus
  E E E E E E E E   +E  E E E E E  E  E
|-----------------|---------------------|
|-----------------|---------------------|
|---------------7-|-(7)-7-7-7-7-7-14-15-|
|-8-7-7-7-7-7-7---|---------------------|
|---------------5-|-(5)-5-5-5-5-5-12-13-|
|-----------------|---------------------|
|
| E E E E E E E E   +E  E E E E E  E  E
|-----------------|---------------------|
|-----------------|---------------------|
|-7-5-5-5-5-5-5---|---------------------|
|---------------5-|-(5)-5-5-5-5-5--5--5-|
|---------------5-|-(5)-5-5-5-5-5--5--5-|
|---------------5-|-(5)-5-5-5-5-5--5--5-|


   Q    Q    E  E E E   E E E E E E  E  E
|---------------------|-------------------|
|---------------------|-------------------|
|-14---12---10-12---5-|-7-7-7-7-7-7-12-14-|
|---------------------|-------------------|
|-12---10----8-10---3-|-5-5-5-5-5-5-10-12-|
|---------------------|-------------------|
|
|  E E  E E  E  E E E   E E E E E E  E  E
|---------------------|-------------------|
|---------------------|-------------------|
|---------------------|-------------------|
|--5-5--5-5--5--5-5-3-|-5-5-5-5-5-5--5--5-|
|--5-5--5-5--5--5-5-3-|-5-5-5-5-5-5--5--5-|
|--5-5--5-5--5--5-5-3-|-5-5-5-5-5-5--5--5-|


   +E   E E  Q   E E  E    +E   E  E  E  E  E  E  E
|-----------------------|---------------------------|
|-----------------------|------------------------11-|
|-(14)-14---14--14---12-|-(12)-12-12-12-12-12-12-14-|
|-----------------------|------------------------12-|
|-(12)-12---13--13---10-|-(10)-10-10-10-10-10-10----|
|-----------------------|---------------------------|
|
|   E   E E  Q   E E  E    +E   E  E  E  E  E  E  E
|-----------------------|---------------------------|
|-----------------------|---------------------------|
|-----------10--10------|------------------------10-|
|---5---5-5-----------1-|--(1)--1--1--1--1--1--1----|
|---5---5-5--8---8----1-|--(1)--1--1--1--1--1--1--8-|
|---5---5-5-----------1-|--(1)--1--1--1--1--1--1----|


   +E   E  E  E  E  E  E E   +E  E E E E E E E
|--------------------------|-------------------|
|-(11)-11-11-11-11-11-11---|-------------------|
|-(14)-14-14-14-14-14-14-7-|-(7)-7-7-7-7-7-x-5-|
|-(12)-12-12-12-12-12-12---|---------------x---|
|------------------------6-|-(6)-6-6-6-6-6-x-3-|
|--------------------------|-------------------|
|
|  +E   E  E  E  E  E  E E   +E  E E E E E E E
|--------------------------|-------------------|
|--------------------------|-------------------|
|-(10)-10-10-10-10-10-10---|---------------x-7-|
|------------------------1-|-(1)-1-1-1-1-1-x---|
|--(8)--8--8--8--8--8--8-1-|-(1)-1-1-1-1-1-x-5-|
|------------------------1-|-(1)-1-1-1-1-1-----|


   E  E  E  E E E E E   +E  E E E E E  E  E
|---------------------|---------------------|
|---------------------|---------------------|
|--7--7--7--7-x-x-x-7-|-(7)-7-7-7-7-7-14-15-|
|-------------x-x-x---|---------------------|
|--5--5--5--5-x-x-x-5-|-(5)-5-5-5-5-5-12-13-|
|-------------x-x-x---|---------------------|
|
|  E  E  E  E E E E E   +E  E E E E E  E  E
|---------------------|---------------------|
|---------------------|---------------------|
|-10-10-10-10-x-x-x---|---------------------|
|-------------x-x-x-5-|-(5)-5-5-5-5-5--5--5-|
|--8--8--8--8-x-x-x-5-|-(5)-5-5-5-5-5--5--5-|
|-------------x-x-x-5-|-(5)-5-5-5-5-5--5--5-|


   Q    Q    E  E E E   E E E E E E  E  E
|---------------------|-------------------|
|---------------------|-------------------|
|-14---12---10-12---5-|-7-7-7-7-7-7-12-14-|
|---------------------|-------------------|
|-12---10----8-10---3-|-5-5-5-5-5-5-10-12-|
|---------------------|-------------------|
|
|  E E  E E  E  E E E   E E E E E E  E  E
|---------------------|-------------------|
|---------------------|-------------------|
|---------------------|-------------------|
|--5-5--5-5--5--5-5-3-|-5-5-5-5-5-5--5--5-|
|--5-5--5-5--5--5-5-3-|-5-5-5-5-5-5--5--5-|
|--5-5--5-5--5--5-5-3-|-5-5-5-5-5-5--5--5-|


   +E   E E  Q   E E  E    +E   E  E  E  E  E  E  E
|-----------------------|---------------------------|
|-----------------------|------------------------11-|
|-(14)-14---14--14---12-|-(12)-12-12-12-12-12-12-14-|
|-----------------------|------------------------12-|
|-(12)-12---13--13---10-|-(10)-10-10-10-10-10-10----|
|-----------------------|---------------------------|
|
|   E   E E  Q   E E  E    +E   E  E  E  E  E  E  E
|-----------------------|---------------------------|
|-----------------------|---------------------------|
|-----------10--10------|------------------------10-|
|---5---5-5-----------1-|--(1)--1--1--1--1--1--1----|
|---5---5-5--8---8----1-|--(1)--1--1--1--1--1--1--8-|
|---5---5-5-----------1-|--(1)--1--1--1--1--1--1----|


   +E   E  E  E  E  E  E E   +E  E E E E E E E
|--------------------------|-------------------|
|-(11)-11-11-11-11-11-11---|-------------------|
|-(14)-14-14-14-14-14-14-7-|-(7)-7-7-7-7-7-x-5-|
|-(12)-12-12-12-12-12-12---|---------------x---|
|------------------------6-|-(6)-6-6-6-6-6-x-3-|
|--------------------------|-------------------|
|
|  +E   E  E  E  E  E  E E   +E  E E E E E E E
|--------------------------|-------------------|
|--------------------------|-------------------|
|-(10)-10-10-10-10-10-10---|---------------x-7-|
|------------------------1-|-(1)-1-1-1-1-1-x---|
|--(8)--8--8--8--8--8--8-1-|-(1)-1-1-1-1-1-x-5-|
|------------------------1-|-(1)-1-1-1-1-1-----|


   E  E  E  E  E  E  E  E   W
|-------------------------|------|
|-------------------------|------|
|--7--7--7--7--7--7--7--7-|------|
|-------------------------|------|
|--5--5--5--5--5--5--5--5-|------|
|-------------------------|------|
|
|  E  E  E  E  E  E  E  E   W
|-------------------------|------|
|-------------------------|------|
|-10-10-10-10-10-10-10-10-|------|
|-------------------------|------|
|--8--8--8--8--8--8--8--8-|------|
|-------------------------|------|


                       Bridge
  W          W           H..                  E   +Q      Q.        Q.
|----------|----------|-------------------------|----------------------------|
|----------|----------|-------------------------|----------------------------|
|----------|----------|-------------------------|-------------------0--------|
|----------|----------|-------------------------|---------8------------------|
|----------|----------|-----------------------6-|-(6)------------------------|
|----------|----------|-------------------------|----------------------------|
|
|                               PM      PM             PM        PM        PM
| W          W           E    E E  E  E E  E  E    E   E  E   E  E  E   E  E
|----------|----------|-------------------------|----------------------------|
|----------|----------|-11--------11---------13-|--------13--------13--------|
|----------|----------|------14------14---14----|-15---------15--------15----|
|----------|----------|---------0-------0-------|-----15--------15--------15-|
|----------|----------|-------------------------|----------------------------|
|----------|----------|-------------------------|----------------------------|


  +H..                    E   +Q      Q.        Q.
|---------------------------|----------------------------|
|---------------------------|----------------------------|
|-(0)-----------------------|-------------------7--------|
|---------------------------|---------5------------------|
|-------------------------3-|-(3)------------------------|
|---------------------------|----------------------------|
|
|          PM       PM             PM        PM        PM
|  E    E  E  E  E  E  E  E    E   E  E   E  E  E   E  E
|---------------------------|----------------------------|
|-13---------13----------11-|--------11--------11--------|
|------15-------15----15----|-14---------14--------14----|
|---------15-------15-------|-----12--------12--------12-|
|---------------------------|----------------------------|
|---------------------------|----------------------------|


                         PM-----------------------|
  +Q.        E  E  E  E  E    E  E  E  E  E  E  E  E
|--------------------------|-------------------------|
|--------------------------|-------------------------|
|-(7)--------------------3-|--3--3--3--3--3--3--3--3-|
|------------3--3--3--3--5-|--5--5--5--5--5--5--5--5-|
|------------3--3--3--3----|-------------------------|
|------------3--3--3--3----|-------------------------|
|
|         PM       PM            PM---------------|
|  E   E  E  E  E  E  E  E    E  E  E  E  E  E  E  E
|--------------------------|-------------------------|
|-11--------11----------11-|-------11-------11-------|
|-----14-------14----14----|-14-------14-------14----|
|--------12-------12-------|----12-------12-------12-|
|--------------------------|-------------------------|
|--------------------------|-------------------------|


   PM------------------------------------------------
   E  E  E  E  E  E  E  E    E  E  E  E  E  E  E  E
|-------------------------|-------------------------|
|-------------------------|-------------------------|
|--3--3--3--3--3--3--3--3-|--3--3--3--3--3--3--3--3-|
|--5--5--5--5--5--5--5--5-|--5--5--5--5--5--5--5--5-|
|-------------------------|-------------------------|
|-------------------------|-------------------------|
|
|  PM---------------|           PM       PM       PM
|  E  E  E  E  E  E  E  E    E  E  E  E  E  E  E  E
|-------------------------|-------------------------|
|-11-------11----------11-|-------11-------11-------|
|----14-------14----14----|-14-------14-------14----|
|-------12-------12-------|----12-------12-------12-|
|-------------------------|-------------------------|
|-------------------------|-------------------------|


 -------|
   E  E  E  E  E  E  E  E   +Q      Q.        Q.
|-------------------------|----------------------------|
|-------------------------|----------------------------|
|--3--3--3--3--3--3--3----|-------------------0--------|
|--5--5--5--5--5--5--5----|---------8------------------|
|-----------------------6-|-(6)------------------------|
|-------------------------|----------------------------|
|
|        PM       PM             PM        PM        PM
|  E  E  E  E  E  E  E  E    E   E  E   E  E  E   E  E
|-------------------------|----------------------------|
|-11-------11----------13-|--------13--------13--------|
|----14-------14----14----|-15---------15--------15----|
|-------12-------12-------|-----15--------15--------15-|
|-------------------------|----------------------------|
|-------------------------|----------------------------|


  +H..                    E   +Q      Q.        Q.
|---------------------------|----------------------------|
|---------------------------|----------------------------|
|-(0)-----------------------|-------------------7--------|
|---------------------------|---------5------------------|
|-------------------------3-|-(3)------------------------|
|---------------------------|----------------------------|
|
|          PM       PM             PM        PM        PM
|  E    E  E  E  E  E  E  E    E   E  E   E  E  E   E  E
|---------------------------|----------------------------|
|-13---------13----------11-|--------11--------11--------|
|------15-------15----15----|-14---------14--------14----|
|---------15-------15-------|-----12--------12--------12-|
|---------------------------|----------------------------|
|---------------------------|----------------------------|


                       Pre-Verse
  +Q.       E E E E E   E E E E E E E E
|---------------------|-----------------|
|---------------------|-----------------|
|-(7)-----------------|-----------------|
|-----------3-3-3-3-1-|-1-1-1-1-1-1-1-1-|
|-----------3-3-3-3-1-|-1-1-1-1-1-1-1-1-|
|-----------3-3-3-3-1-|-1-1-1-1-1-1-1-1-|
|
|         PM
|  E   E  E E E E E E   E E E E E E E E
|---------------------|-----------------|
|-11------------------|-----------------|
|-----14------------7-|-7-7-7-7-7-7-7-7-|
|--------12-3-3-3-3---|-----------------|
|-----------3-3-3-3-6-|-6-6-6-6-6-6-6-6-|
|-----------3-3-3-3---|-----------------|


                                                             PM--------|
  E E E E E E E E   E E E E E E E E   E E E E E E E E   E Q  S S S S S S  Q
|-----------------|-----------------|-----------------|-----------------------|
|-----------------|-----------------|-----------------|------------------10---|
|-----------------|-----------------|-----------------|-----------------------|
|-1-1-1-1-1-1-1-1-|-1-1-1-1-1-1-1-1-|-1-1-1-1-1-1-1-5-|-3-5---------------8---|
|-1-1-1-1-1-1-1-1-|-1-1-1-1-1-1-1-1-|-1-1-1-1-1-1-1-5-|-3-5--0-0-0-0-0-0------|
|-1-1-1-1-1-1-1-1-|-1-1-1-1-1-1-1-1-|-1-1-1-1-1-1-1-5-|-3-5--0-0-0-0-0-0------|
|
|                                                            PM--------|
| E E E E E E E E   E E E E E E E E   E E E E E E E E   E Q  S S S S S S  Q
|-----------------|-----------------|-----------------|-----------------------|
|-----------------|-----------------|-----------------|------------------10---|
|-7-7-7-7-7-7-7-7-|-7-7-7-7-7-7-7-7-|-7-7-7-7-7-7-7---|-----------------------|
|-----------------|-----------------|---------------5-|-3-5---------------8---|
|-6-6-6-6-6-6-6-6-|-6-6-6-6-6-6-6-6-|-6-6-6-6-6-6-6-5-|-3-5--0-0-0-0-0-0------|
|-----------------|-----------------|---------------5-|-3-5--0-0-0-0-0-0------|


  PM                    PM--------|       PM
  E  Q  E E Q  E   E Q  S S S S S S  Q    E  Q  E  E  Q  E   E E E E E E E E
|----------------|----------------------|------------------|------------------|
|---10---------4-|------------------10--|---10-----8-------|------------------|
|----------------|-7--------------------|------------10----|------------------|
|----8--5-3-5----|---5---------------8--|----8-----------1-|-1-1-1-1-1-1-1-1--|
|-0-----5-3-5----|---5--0-0-0-0-0-0-----|-0--------------1-|-1-1-1-1-1-1-1-1--|
|-0-----5-3-5----|---5--0-0-0-0-0-0-----|-0--------------1-|-1-1-1-1-1-1-1-1--|
|
| PM                    PM--------|       PM
| E  Q  E E Q  E   E Q  S S S S S S  Q    E  Q  E  E  Q  E   E E E E E E E E
|----------------|----------------------|------------------|------------------|
|---10---------4-|------------------10--|---10----11-------|------------------|
|----------------|-7--------------------|------------14--7-|-7-7-7-7-7-7-7-7--|
|----8--5-3-5----|---5---------------8--|----8-------------|------------------|
|-0-----5-3-5----|---5--0-0-0-0-0-0-----|-0--------------6-|-6-6-6-6-6-6-6-6--|
|-0-----5-3-5----|---5--0-0-0-0-0-0-----|-0----------------|------------------|


                                                             PM--------|
  E E E E E E E E   E E E E E E E E   E E E E E E E E   E Q  S S S S S S  Q
|-----------------|-----------------|-----------------|-----------------------|
|-----------------|-----------------|-----------------|------------------10---|
|-----------------|-----------------|-----------------|-----------------------|
|-1-1-1-1-1-1-1-1-|-1-1-1-1-1-1-1-1-|-1-1-1-1-1-1-1-5-|-3-5---------------8---|
|-1-1-1-1-1-1-1-1-|-1-1-1-1-1-1-1-1-|-1-1-1-1-1-1-1-5-|-3-5--0-0-0-0-0-0------|
|-1-1-1-1-1-1-1-1-|-1-1-1-1-1-1-1-1-|-1-1-1-1-1-1-1-5-|-3-5--0-0-0-0-0-0------|
|
|                                                            PM--------|
| E E E E E E E E   E E E E E E E E   E E E E E E E E   E Q  S S S S S S  Q
|-----------------|-----------------|-----------------|-----------------------|
|-----------------|-----------------|-----------------|------------------10---|
|-7-7-7-7-7-7-7-7-|-7-7-7-7-7-7-7-7-|-7-7-7-7-7-7-7---|-----------------------|
|-----------------|-----------------|---------------5-|-3-5---------------8---|
|-6-6-6-6-6-6-6-6-|-6-6-6-6-6-6-6-6-|-6-6-6-6-6-6-6-5-|-3-5--0-0-0-0-0-0------|
|-----------------|-----------------|---------------5-|-3-5--0-0-0-0-0-0------|


                  7/8                   4/4
  PM                    PM--------|           PM
  E  Q  E E Q  E   E Q  S S S S S S  E    +E  E  Q  E  E  Q
|----------------|---------------------|---------------------|
|---10---------4-|------------------10-|-(10)---10-----8-----|
|----------------|-7-------------------|-----------------10--|
|----8--5-3-5----|---5---------------8-|--(8)----8-----------|
|-0-----5-3-5----|---5--0-0-0-0-0-0----|------0--------------|
|-0-----5-3-5----|---5--0-0-0-0-0-0----|------0--------------|
|
| PM                    PM--------|           PM
| E  Q  E E Q  E   E Q  S S S S S S  E    +E  E  Q  E  E  Q
|----------------|---------------------|---------------------|
|---10---------4-|------------------10-|-(10)---10----11-----|
|----------------|-7-------------------|-----------------14--|
|----8--5-3-5----|---5---------------8-|--(8)----8-----------|
|-0-----5-3-5----|---5--0-0-0-0-0-0----|------0--------------|
|-0-----5-3-5----|---5--0-0-0-0-0-0----|------0--------------|


 Verse
                 |-3-| |-3--| |-3--| |-3--|
  Q  E Q.   Q    E E E E E  E E E  E E E  E
|--------------|----------------------------|
|--------------|----------------------------|
|------7-------|----------------------------|
|-5----8----5--|-------7h8h10---------------|
|-5---------5--|-5h6h8---------------7h8h10-|
|-5---------5--|--------------7h8h10--------|
|
|                |-3-| |-3--| |-3--| |-3--|
| Q  E Q.   Q    E E E E E  E E E  E E E  E
|--------------|----------------------------|
|--------------|----------------------------|
|------7-------|----------------------------|
|-5----8----5--|-------7h8h10---------------|
|-5---------5--|-5h6h8---------------7h8h10-|
|-5---------5--|--------------7h8h10--------|


  Q  E Q.   Q    E  E  E   E E  E E  E
|--------------|-----------------------|
|--------------|----8p=6---------------|
|------7-------|-------------3h=7------|
|-5----8----5--|----------h8------5h=7-|
|-5---------5--|-----------------------|
|-5---------5--|-----------------------|
|
| Q  E Q.   Q    E  E  E   E E  E E  E
|--------------|-----------------------|
|--------------|---11p10---------------|
|------7-------|-------------7h10------|
|-5----8----5--|---------h12------8h10-|
|-5---------5--|-----------------------|
|-5---------5--|-----------------------|


                 |-3-| |-3--| |-3--| |-3--|
  Q.   Q.   Q    E E E E E  E E E  E E E  E   Q  E Q.   Q    E E E E E E E  E
|--------------|----------------------------|--------------|------------------|
|--------------|----------------------------|--------------|------------------|
|------7-------|----------------------------|------7-------|---3--------------|
|-5----8----5--|-------7h8h10---------------|-5----8----5--|-----0-0-0-0-0--0-|
|-5---------5--|-5h6h8---------------7h8h10-|-5---------5--|-----5-5-5-5-5--5-|
|-5---------5--|--------------7h8h10--------|-5---------5--|------------------|
|
| Q.   Q.   Q    W                            Q  E Q.   Q    E E E E E E E  E
|--------------|----------------------------|--------------|------------------|
|--------------|----------------------------|--------------|------------------|
|------7-------|----------------------------|------7-------|---7-7-7-7-7-7-10-|
|-5----8----5--|----------------------------|-5----8----5--|------------------|
|-5---------5--|----------------------------|-5---------5--|---5-5-5-5-5-5--8-|
|-5---------5--|----------------------------|-5---------5--|------------------|


   E +Q      Q.        Q      +W
|---------------------------|--------------------------|
|---------------------------|--------------------------|
|----------------------0----|-(0)----------------------|
|------------8--------------|--------------------------|
|--6-(6)--------------------|--------------------------|
|---------------------------|--------------------------|
|
|  E  E   E  E   E  E  E  E    E   E  E  E  E  E  E  E
|---------------------------|--------------------------|
|---------------------------|--------------------------|
|-12-12--12-12--12-12-12-12-|-12--12-12-12-12-12-12-12-|
|---------------------------|--------------------------|
|-10-10--10-10--10-10-10-10-|-10--10-10-10-10-10-10-10-|
|---------------------------|--------------------------|


   Q.        Q.        Q      +H            E  E  E  E
|---------------------------|--------------------------|
|---------------------------|--------------------------|
|----------------------7----|-(7)----------------------|
|------------5--------------|---------------3--3--3--3-|
|--3------------------------|---------------3--3--3--3-|
|---------------------------|---------------3--3--3--3-|
|
|  E   E  E  E   E  E  E  E    E   E  E  E  E  E  E  E
|---------------------------|--------------------------|
|---------------------------|--------------------------|
|-14--14-14-15--15-15-12-12-|-12--12-12-12-12-10-10-10-|
|---------------------------|--------------------------|
|-12--12-12-13--13-13-10-10-|-10--10-10-10-10--8--8--8-|
|---------------------------|--------------------------|


                 |-3-| |-3--| |-3--| |-3--|
  Q  E Q.   Q    E E E E E  E E E  E E E  E
|--------------|----------------------------|
|--------------|----------------------------|
|------7-------|----------------------------|
|-5----8----5--|-------7h8h10---------------|
|-5---------5--|-5h6h8---------------7h8h10-|
|-5---------5--|--------------7h8h10--------|
|
|                |-3-| |-3--| |-3--| |-3--|
| Q  E Q.   Q    E E E E E  E E E  E E E  E
|--------------|----------------------------|
|--------------|----------------------------|
|------7-------|----------------------------|
|-5----8----5--|-------7h8h10---------------|
|-5---------5--|-5h6h8---------------7h8h10-|
|-5---------5--|--------------7h8h10--------|


  Q  E Q.   Q    E  E  E   E E  E E  E
|--------------|-----------------------|
|--------------|----8p=6---------------|
|------7-------|-------------3h=7------|
|-5----8----5--|----------h8------5h=7-|
|-5---------5--|-----------------------|
|-5---------5--|-----------------------|
|
| Q  E Q.   Q    E  E  E   E E  E E  E
|--------------|-----------------------|
|--------------|---11p10---------------|
|------7-------|-------------7h10------|
|-5----8----5--|---------h12------8h10-|
|-5---------5--|-----------------------|
|-5---------5--|-----------------------|


   E +Q      Q.        Q      +W
|---------------------------|--------------------------|
|---------------------------|--------------------------|
|----------------------0----|-(0)----------------------|
|------------8--------------|--------------------------|
|--6-(6)--------------------|--------------------------|
|---------------------------|--------------------------|
|
|  E  E   E  E   E  E  E  E    E   E  E  E  E  E  E  E
|---------------------------|--------------------------|
|---------------------------|--------------------------|
|-12-12--12-12--12-12-12-12-|-12--12-12-12-12-12-12-12-|
|---------------------------|--------------------------|
|-10-10--10-10--10-10-10-10-|-10--10-10-10-10-10-10-10-|
|---------------------------|--------------------------|


   Q.        Q.        Q      +H           +E   E  E  E
|---------------------------|---------------------------|
|---------------------------|---------------------------|
|----------------------7----|-(7)----------(7)----------|
|------------5--------------|-------------------3--3--3-|
|--3------------------------|-------------------3--3--3-|
|---------------------------|-------------------3--3--3-|
|
|  E   E  E  E   E  E  E  E    E   E  E  E  E   E  E  E
|---------------------------|---------------------------|
|---------------------------|---------------------------|
|-14--14-14-15--15-15-12-12-|-12--12-12-12-12--10-10-10-|
|---------------------------|---------------------------|
|-12--12-12-13--13-13-10-10-|-10--10-10-10-10---8--8--8-|
|---------------------------|---------------------------|


 Bridge
   E  E  E  E  E  E  E  E    E  E  E  E  E  E  E  E
|-------------------------|-------------------------|
|-------------------------|-------------------------|
|-------------------------|-------------------------|
|-------------------------|-------------------------|
|-----------5-------------|-----5-----------------3-|
|--5--3--5-----5--3--5--3-|--5-----5--3--5--3--5----|
|
|  E  E  E  E  E  E  E  E    E  E  E  E  E  E  E  E
|-------------------------|-------------------------|
|-------------------------|-------------------------|
|-10-12-12-12-12-12-12-12-|-12-12-12-12-12-12-12-12-|
|-------------------------|-------------------------|
|--8-10-10-10-10-10-10-10-|-10-10-10-10-10-10-10-10-|
|-------------------------|-------------------------|


   E  E  E  E  E  E  E  E    E  E  E  E  E  E  E  E
|-------------------------|-------------------------|
|-------------------------|-------------------------|
|-------------------------|-------------------------|
|-------------------------|-------------------------|
|-----------5-------------|-----5-----------------5-|
|--5--3--5-----5--3--5--3-|--5-----5--3--5--3--5----|
|
|  E  E  E  E  E  E  E  E    E  E  E  E  E  E  E  E
|-------------------------|-------------------------|
|-11-11-11-11-11-11-11-11-|-11-11-11-11-11-11-11-11-|
|-14-14-14-14-14-14-14-14-|-14-14-14-14-14-14-14-14-|
|-12-12-12-12-12-12-12-12-|-12-12-12-12-12-12-12-12-|
|-------------------------|-------------------------|
|-------------------------|-------------------------|


                                      PM--------|
  H     H      H.      E E   H     Q  S S S S   H     H
|------------|-------------|------------------|-------------|
|------------|-------------|------------------|------<5>----|
|------------|-------------|------------------|-7----<5>----|
|-5\---------|---------5-5-|-5\---------------|------<5>----|
|-5\---------|---------5-5-|-5\-------6-6-6-6-|-6-----------|
|-5\---------|---------5-5-|-5\---------------|-------------|
|
| H     H      W             W                  H     H
|------------|-------------|------------------|-------------|
|------------|-------------|------------------|------<5>----|
|------------|-------------|------------------|------<5>----|
|-5\---------|-------------|------------------|------<5>----|
|-5\---------|-------------|------------------|-------------|
|-5\---------|-------------|------------------|-------------|


                                      PM--------|
  H     H      H.      E E   H     Q  S S S S   H     H
|------------|-------------|------------------|-------------|
|------------|-------------|------------------|------<5>----|
|------------|-------------|------------------|-7----<5>----|
|-5\---------|---------5-5-|-5\---------------|------<5>----|
|-5\---------|---------5-5-|-5\-------6-6-6-6-|-6-----------|
|-5\---------|---------5-5-|-5\---------------|-------------|
|
|                                     PM--------|
| H     H      H.      E E   H     Q  S S S S   H     H
|------------|-------------|------------------|-------------|
|------------|-------------|------------------|------<5>----|
|------------|-------------|------------------|-7----<5>----|
|-5\---------|---------5-5-|-5\---------------|------<5>----|
|-5\---------|---------5-5-|-5\-------6-6-6-6-|-6-----------|
|-5\---------|---------5-5-|-5\---------------|-------------|


                                      PM--------|
  H     H      H.      E E   H     Q  S S S S   H     H
|------------|-------------|------------------|-------------|
|------------|-------------|------------------|------<5>----|
|------------|-------------|------------------|-7----<5>----|
|-5\---------|---------5-5-|-5\---------------|------<5>----|
|-5\---------|---------5-5-|-5\-------6-6-6-6-|-6-----------|
|-5\---------|---------5-5-|-5\---------------|-------------|
|
|                                     PM--------|
| H     H      H.      E E   H     Q  S S S S   H     H
|------------|-------------|------------------|-------------|
|------------|-------------|------------------|------<5>----|
|------------|-------------|------------------|-7----<5>----|
|-5\---------|---------5-5-|-5\---------------|------<5>----|
|-5\---------|---------5-5-|-5\-------6-6-6-6-|-6-----------|
|-5\---------|---------5-5-|-5\---------------|-------------|


 Pre-Chorus
   E  E  E  E  E  E  E  E    E  E  E  E  E  E  E  E
|-------------------------|-------------------------|
|-------------------------|-------------------------|
|-------------------------|-------------------------|
|--1--1--1--1--1--1--1--1-|--1--1--1--1--1--1--1--1-|
|--1--1--1--1--1--1--1--1-|--1--1--1--1--1--1--1--1-|
|--1--1--1--1--1--1--1--1-|--1--1--1--1--1--1--1--1-|
|
|  E  E  E  E  E  E  E  E    E  E  E  E  E  E  E  E
|-------------------------|-------------------------|
|-------------------------|-------------------------|
|-12-12-12-12-12-12-12-12-|-12-12-12-12-12-12-12-12-|
|-------------------------|-------------------------|
|-10-10-10-10-10-10-10-10-|-10-10-10-10-10-10-10-10-|
|-------------------------|-------------------------|


   E  E  E  E  E  E  E  E    E  E  E  E  E  E  E  E
|-------------------------|-------------------------|
|-------------------------|-------------------------|
|-------------------------|-------------------------|
|--1--1--1--1--1--1--1--1-|--1--1--1--1--1--1--1--1-|
|--1--1--1--1--1--1--1--1-|--1--1--1--1--1--1--1--1-|
|--1--1--1--1--1--1--1--1-|--1--1--1--1--1--1--1--1-|
|
|  E  E  E  E  E  E  E  E    E  E  E  E  E  E  E  E
|-------------------------|-------------------------|
|-------------------------|-------------------------|
|-12-10-10-10-10-10-10-10-|-10-10-10-10-10-10-10-10-|
|-------------------------|-------------------------|
|-10--8--8--8--8--8--8--8-|--8--8--8--8--8--8--8--8-|
|-------------------------|-------------------------|


         PM--------|           PM                       PM--------|
  E E Q  S S S S S S  E    +E  E  Q  E E E +E    E E Q  S S S S S S  E
|-----------------------|----------------------|-----------------------|
|--------------------10-|-(10)---10------------|-4------------------10-|
|-----------------------|----------------------|---7-------------------|
|-5-3-5---------------8-|--(8)----8--5-3-5-(5)-|-----5---------------8-|
|-5-3-5--0-0-0-0-0-0----|------0-----5-3-5-(5)-|-----5--0-0-0-0-0-0----|
|-5-3-5--0-0-0-0-0-0----|------0-----5-3-5-(5)-|-----5--0-0-0-0-0-0----|
|
|        PM--------|           PM                       PM--------|
| E E Q  S S S S S S  E    +E  E  Q  E E E +E    E E Q  S S S S S S  E
|-----------------------|----------------------|-----------------------|
|--------------------10-|-(10)---10------------|-4------------------10-|
|-----------------------|----------------------|---7-------------------|
|-5-3-5---------------8-|--(8)----8--5-3-5-(5)-|-----5---------------8-|
|-5-3-5--0-0-0-0-0-0----|------0-----5-3-5-(5)-|-----5--0-0-0-0-0-0----|
|-5-3-5--0-0-0-0-0-0----|------0-----5-3-5-(5)-|-----5--0-0-0-0-0-0----|


       PM
   +E  E  Q  E  E  Q     E  E  E  E  E  E  E  E
|---------------------|-------------------------|
|-(10)---10-----8-----|-------------------------|
|-----------------10--|-------------------------|
|--(8)----8-----------|--1--1--1--1--1--1--1--1-|
|------0--------------|--1--1--1--1--1--1--1--1-|
|------0--------------|--1--1--1--1--1--1--1--1-|
|
|      PM
|  +E  E  Q  E  E  Q     E  E  E  E  E  E  E  E
|---------------------|-------------------------|
|-(10)---10----11-----|-------------------------|
|-----------------14--|-12-12-12-12-12-12-12-12-|
|--(8)----8-----------|-------------------------|
|------0--------------|-10-10-10-10-10-10-10-10-|
|------0--------------|-------------------------|


   E  E  E  E  E  E  E  E    E  E  E  E  E  E  E  E
|-------------------------|-------------------------|
|-------------------------|-------------------------|
|-------------------------|-------------------------|
|--1--1--1--1--1--1--1--1-|--1--1--1--1--1--1--1--1-|
|--1--1--1--1--1--1--1--1-|--1--1--1--1--1--1--1--1-|
|--1--1--1--1--1--1--1--1-|--1--1--1--1--1--1--1--1-|
|
|  E  E  E  E  E  E  E  E    E  E  E  E  E  E  E  E
|-------------------------|-------------------------|
|-------------------------|-------------------------|
|-12-12-12-12-12-14-14-14-|-14-15-15-15-15-15-15-15-|
|-------------------------|-------------------------|
|-10-10-10-10-10-12-12-12-|-12-13-13-13-13-13-13-13-|
|-------------------------|-------------------------|


                                   PM--------|
   E  E  E  E  E  E  E  E   E E Q  S S S S S S  E
|-------------------------|-----------------------|
|-------------------------|--------------------10-|
|-------------------------|-----------------------|
|--1--1--1--1--1--1--1--1-|-5-3-5---------------8-|
|--1--1--1--1--1--1--1--1-|-5-3-5--0-0-0-0-0-0----|
|--1--1--1--1--1--1--1--1-|-5-3-5--0-0-0-0-0-0----|
|
|                                  PM--------|
|  E  E  E  E  E  E  E  E   E E Q  S S S S S S  E
|-------------------------|-----------------------|
|-------------------------|--------------------10-|
|-15-15-15-15-15-15-15-15-|-----------------------|
|-------------------------|-5-3-5---------------8-|
|-13-13-13-13-13-13-13-13-|-5-3-5--0-0-0-0-0-0----|
|-------------------------|-5-3-5--0-0-0-0-0-0----|


       PM                       PM--------|
   +E  E  Q  E E E +E    E E Q  S S S S S S  E
|----------------------|-----------------------|
|-(10)---10------------|-4------------------10-|
|----------------------|---7-------------------|
|--(8)----8--5-3-5-(5)-|-----5---------------8-|
|------0-----5-3-5-(5)-|-----5--0-0-0-0-0-0----|
|------0-----5-3-5-(5)-|-----5--0-0-0-0-0-0----|
|
|      PM                       PM--------|
|  +E  E  Q  E E E +E    E E Q  S S S S S S  E
|----------------------|-----------------------|
|-(10)---10------------|-4------------------10-|
|----------------------|---7-------------------|
|--(8)----8--5-3-5-(5)-|-----5---------------8-|
|------0-----5-3-5-(5)-|-----5--0-0-0-0-0-0----|
|------0-----5-3-5-(5)-|-----5--0-0-0-0-0-0----|


       PM
   +E  E  Q  E  E  Q    E E E E E E E E
|---------------------|-----------------|
|-(10)---10-----8-----|-----------------|
|-----------------10--|-----------------|
|--(8)----8-----------|-5-5-5-5-5-5-5-5-|
|------0--------------|-----------------|
|------0--------------|-----------------|
|
|      PM
|  +E  E  Q  E  E  Q    E E E E E E E E
|---------------------|-----------------|
|-(10)---10----11-----|-----------------|
|-----------------14--|-----------------|
|--(8)----8-----------|-----------------|
|------0--------------|-6-6-6-6-6-6-6-6-|
|------0--------------|-----------------|


                   Chorus
  E E E E E E E E   +E  E E E E E  E  E
|-----------------|---------------------|
|-----------------|---------------------|
|---------------7-|-(7)-7-7-7-7-7-14-15-|
|-5-8-8-8-8-8-8---|---------------------|
|---------------5-|-(5)-5-5-5-5-5-12-13-|
|-----------------|---------------------|
|
| E E E E E E E E   +E  E E E E E  E  E
|-----------------|---------------------|
|-----------------|---------------------|
|-----------------|---------------------|
|---------------5-|-(5)-5-5-5-5-5--5--5-|
|-6-8-8-8-8-8-8-5-|-(5)-5-5-5-5-5--5--5-|
|---------------5-|-(5)-5-5-5-5-5--5--5-|


   Q    Q    E  E E E   E E E E E E  E  E
|---------------------|-------------------|
|---------------------|-------------------|
|-14---12---10-12---5-|-7-7-7-7-7-7-12-14-|
|---------------------|-------------------|
|-12---10----8-10---3-|-5-5-5-5-5-5-10-12-|
|---------------------|-------------------|
|
|  E E  E E  E  E E E   E E E E E E  E  E
|---------------------|-------------------|
|---------------------|-------------------|
|---------------------|-------------------|
|--5-5--5-5--5--5-5-3-|-5-5-5-5-5-5--5--5-|
|--5-5--5-5--5--5-5-3-|-5-5-5-5-5-5--5--5-|
|--5-5--5-5--5--5-5-3-|-5-5-5-5-5-5--5--5-|


   +E   E E  Q   E E  E    +E   E  E  E  E  E  E  E
|-----------------------|---------------------------|
|-----------------------|------------------------11-|
|-(14)-14---14--14---12-|-(12)-12-12-12-12-12-12-14-|
|-----------------------|------------------------12-|
|-(12)-12---13--13---10-|-(10)-10-10-10-10-10-10----|
|-----------------------|---------------------------|
|
|   E   E E  Q   E E  E    +E   E  E  E  E  E  E  E
|-----------------------|---------------------------|
|-----------------------|---------------------------|
|-----------10--10------|------------------------10-|
|---5---5-5-----------1-|--(1)--1--1--1--1--1--1----|
|---5---5-5--8---8----1-|--(1)--1--1--1--1--1--1--8-|
|---5---5-5-----------1-|--(1)--1--1--1--1--1--1----|


   +E   E  E  E  E  E  E E   +E  E E E E E E E
|--------------------------|-------------------|
|-(11)-11-11-11-11-11-11---|-------------------|
|-(14)-14-14-14-14-14-14-7-|-(7)-7-7-7-7-7-x-5-|
|-(12)-12-12-12-12-12-12---|---------------x---|
|------------------------6-|-(6)-6-6-6-6-6-x-3-|
|--------------------------|-------------------|
|
|  +E   E  E  E  E  E  E E   +E  E E E E E E E
|--------------------------|-------------------|
|--------------------------|-------------------|
|-(10)-10-10-10-10-10-10---|---------------x-7-|
|------------------------1-|-(1)-1-1-1-1-1-x---|
|--(8)--8--8--8--8--8--8-1-|-(1)-1-1-1-1-1-x-5-|
|------------------------1-|-(1)-1-1-1-1-1-----|


   E  E  E  E E E E E   +E  E E E E E  E  E
|---------------------|---------------------|
|---------------------|---------------------|
|--7--7--7--7-x-x-x-7-|-(7)-7-7-7-7-7-14-15-|
|-------------x-x-x---|---------------------|
|--5--5--5--5-x-x-x-5-|-(5)-5-5-5-5-5-12-13-|
|-------------x-x-x---|---------------------|
|
|  E  E  E  E E E E E   +E  E E E E E  E  E
|---------------------|---------------------|
|---------------------|---------------------|
|-10-10-10-10-x-x-x---|---------------------|
|-------------x-x-x-5-|-(5)-5-5-5-5-5--5--5-|
|--8--8--8--8-x-x-x-5-|-(5)-5-5-5-5-5--5--5-|
|-------------x-x-x-5-|-(5)-5-5-5-5-5--5--5-|


   Q    Q    E  E E E   E E E E E E  E  E
|---------------------|-------------------|
|---------------------|-------------------|
|-14---12---10-12---5-|-7-7-7-7-7-7-12-14-|
|---------------------|-------------------|
|-12---10----8-10---3-|-5-5-5-5-5-5-10-12-|
|---------------------|-------------------|
|
|  E E  E E  E  E E E   E E E E E E  E  E
|---------------------|-------------------|
|---------------------|-------------------|
|---------------------|-------------------|
|--5-5--5-5--5--5-5-3-|-5-5-5-5-5-5--5--5-|
|--5-5--5-5--5--5-5-3-|-5-5-5-5-5-5--5--5-|
|--5-5--5-5--5--5-5-3-|-5-5-5-5-5-5--5--5-|


   +E   E E  Q   E E  E    +E   E  E  E  E  E  E  E
|-----------------------|---------------------------|
|-----------------------|------------------------11-|
|-(14)-14---14--14---12-|-(12)-12-12-12-12-12-12-14-|
|-----------------------|------------------------12-|
|-(12)-12---13--13---10-|-(10)-10-10-10-10-10-10----|
|-----------------------|---------------------------|
|
|   E   E E  Q   E E  E    +E   E  E  E  E  E  E  E
|-----------------------|---------------------------|
|-----------------------|---------------------------|
|-----------10--10------|------------------------10-|
|---5---5-5-----------1-|--(1)--1--1--1--1--1--1----|
|---5---5-5--8---8----1-|--(1)--1--1--1--1--1--1--8-|
|---5---5-5-----------1-|--(1)--1--1--1--1--1--1----|


   +E   E  E  E  E  E  E E   +E  E E E E E E E
|--------------------------|-------------------|
|-(11)-11-11-11-11-11-11---|-------------------|
|-(14)-14-14-14-14-14-14-7-|-(7)-7-7-7-7-7-x-5-|
|-(12)-12-12-12-12-12-12---|---------------x---|
|------------------------6-|-(6)-6-6-6-6-6-x-3-|
|--------------------------|-------------------|
|
|  +E   E  E  E  E  E  E E   +E  E E E E E E E
|--------------------------|-------------------|
|--------------------------|-------------------|
|-(10)-10-10-10-10-10-10---|---------------x-7-|
|------------------------1-|-(1)-1-1-1-1-1-x---|
|--(8)--8--8--8--8--8--8-1-|-(1)-1-1-1-1-1-x-5-|
|------------------------1-|-(1)-1-1-1-1-1-----|


                           Interlude
   E  E  E  E  E  E  E  E    W
|-------------------------|-------|
|-------------------------|-------|
|--7--7--7--7--7--7--7--7-|-------|
|-------------------------|--1----|
|--5--5--5--5--5--5--5--5-|--1----|
|-------------------------|--1----|
|
|  E  E  E  E  E  E  E  E    W
|-------------------------|-------|
|-------------------------|-------|
|-10-10-10-10-10-10-10-10-|-12----|
|-------------------------|-------|
|--8--8--8--8--8--8--8--8-|-10----|
|-------------------------|-------|


   +W                W           +W           E +Q   Q.   Q
|-----------------|-----------|-------------|----------------|
|-----------------|-----------|-------------|----------------|
|-----------------|-----------|-------------|----------------|
|--(1)------------|--3--------|--(3)--------|-------------3--|
|--(1)------------|--3--------|--(3)--------|--------5-------|
|--(1)------------|--3--------|--(3)--------|-5-(5)----------|
|
|  +H.       E  E    W           +W           W
|-----------------|-----------|-------------|----------------|
|-----------------|-----------|-------------|----------------|
|-(12)------14-15-|-14--------|-(14)--------|-7--------------|
|-----------------|-----------|-------------|----------------|
|-(10)------12-13-|-12--------|-(12)--------|-5--------------|
|-----------------|-----------|-------------|----------------|


   W            Q.        Q.        Q
|------------|---------------------------|
|------------|---------------------------|
|--0---------|----------------------0----|
|------------|------------3--------------|
|------------|--1------------------------|
|------------|---------------------------|
|
| +W            E   E  E  E   E  E  E  E
|------------|---------------------------|
|------------|---------------------------|
|-(7)--------|-19--19-19-19--19-19-19-19-|
|------------|---------------------------|
|-(5)--------|-17--17-17-17--17-17-17-17-|
|------------|---------------------------|


   Q.        Q.        Q       W
|---------------------------|-------------------------|
|---------------------------|-------------------------|
|----------------------0----|-------------------------|
|------------3--------------|--1----------------------|
|--0------------------------|--1----------------------|
|---------------------------|--1----------------------|
|
|  E   E  E  E   E  E  E  E    E  E  E  E  E  E  E  E
|---------------------------|-------------------------|
|---------------------------|-------------------------|
|-14--14-14-14--14-14-14-14-|-12-12-12-12-12-12-12-12-|
|---------------------------|-------------------------|
|-12--12-12-12--12-12-12-12-|-10-10-10-10-10-10-10-10-|
|---------------------------|-------------------------|


  +W                          W
|--------------------------|-------------------------|
|--------------------------|-------------------------|
|--------------------------|-------------------------|
|-(1)----------------------|--3----------------------|
|-(1)----------------------|--3----------------------|
|-(1)----------------------|--3----------------------|
|
|  E   E  E  E  E  E  E  E    E  E  E  E  E  E  E  E
|--------------------------|-------------------------|
|--------------------------|-11-11-11-11-11-11-11-11-|
|-12--12-12-12-12-12-12-12-|-14-14-14-14-14-14-14-14-|
|--------------------------|-12-12-12-12-12-12-12-12-|
|-10--10-10-10-10-10-10-10-|-------------------------|
|--------------------------|-------------------------|


  +W                         E +Q    Q.     Q
|--------------------------|--------------------|
|--------------------------|--------------------|
|--------------------------|--------------------|
|-(3)----------------------|----------------3---|
|-(3)----------------------|---------5----------|
|-(3)----------------------|-5-(5)--------------|
|
|  E   E  E  E  E  E  E  E   E  E  E E  E E E E
|--------------------------|--------------------|
|-11--11-11-11-11-11-11-11-|--------------------|
|-14--14-14-14-14-14-14-14-|-7--7--7-7--7-7-7-7-|
|-12--12-12-12-12-12-12-12-|--------------------|
|--------------------------|-5--5--5-5--5-5-5-5-|
|--------------------------|--------------------|


  W                  Q.        Q.        Q
|-----------------|---------------------------|
|-----------------|---------------------------|
|-0---------------|----------------------0----|
|-----------------|------------3--------------|
|-----------------|--1------------------------|
|-----------------|---------------------------|
|
| E E E E E E E E    E   E  E  E   E  E  E  E
|-----------------|---------------------------|
|-----------------|---------------------------|
|-7-7-7-7-7-7-7-7-|-19--19-19-19--19-19-19-19-|
|-----------------|---------------------------|
|-5-5-5-5-5-5-5-5-|-17--17-17-17--17-17-17-17-|
|-----------------|---------------------------|


   Q.        Q.        Q       W
|---------------------------|-------|
|---------------------------|-------|
|----------------------0----|-------|
|------------3--------------|--1----|
|--0------------------------|--1----|
|---------------------------|--1----|
|
|  E   E  E  E   E  E  E  E    W
|---------------------------|-------|
|---------------------------|-------|
|-14--14-14-14--14-14-14-14-|-12----|
|---------------------------|-------|
|-12--12-12-12--12-12-12-12-|-10----|
|---------------------------|-------|


                                          Outro
   +W            W          +W             E E E E E E E E
|-------------|-----------|------------||------------------|
|-------------|-----------|------------||o-----------------|
|-------------|-----------|------------||------------------|
|--(1)--------|--3--------|-(3)--------||--5-5-5-5-5-5-5-5-|
|--(1)--------|--3--------|-(3)--------||o-5-5-5-5-5-5-5-5-|
|--(1)--------|--3--------|-(3)--------||--5-5-5-5-5-5-5-5-|
|
|  +W            W          +W             E E E E E E E E
|-------------|-----------|------------||------------------|
|-------------|-----------|------------||o-----------------|
|-(12)--------|-/7--------|-(7)--------||------------------|
|-------------|-----------|------------||--5-5-5-5-5-5-5-5-|
|-(10)--------|-/5--------|-(5)--------||o-5-5-5-5-5-5-5-5-|
|-------------|-----------|------------||--5-5-5-5-5-5-5-5-|


  E E E E E E E E   E E E E E E E E   E E E E E E E E   E E E E E E E E
|-----------------|-----------------|-----------------|-----------------|
|-----------------|-----------------|-----------------|-----------------|
|-----------------|-----------------|-----------------|-----------------|
|-5-5-5-5-5-5-5-5-|-5-5-5-5-5-5-5-5-|-5-5-5-5-5-5-5-5-|-1-1-1-1-1-1-1-1-|
|-5-5-5-5-5-5-5-5-|-5-5-5-5-5-5-5-5-|-5-5-5-5-5-5-5-5-|-1-1-1-1-1-1-1-1-|
|-5-5-5-5-5-5-5-5-|-5-5-5-5-5-5-5-5-|-5-5-5-5-5-5-5-5-|-1-1-1-1-1-1-1-1-|
|
| E E E E E E E E   E E E E E E E E   E E E E E E E E   E E E E E E E E
|-----------------|-----------------|-----------------|-----------------|
|-----------------|-----------------|-----------------|-----------------|
|-----------------|-----------------|-----------------|-----------------|
|-5-5-5-5-5-5-5-5-|-5-5-5-5-5-5-5-5-|-5-5-5-5-5-5-5-5-|-1-1-1-1-1-1-1-1-|
|-5-5-5-5-5-5-5-5-|-5-5-5-5-5-5-5-5-|-5-5-5-5-5-5-5-5-|-1-1-1-1-1-1-1-1-|
|-5-5-5-5-5-5-5-5-|-5-5-5-5-5-5-5-5-|-5-5-5-5-5-5-5-5-|-1-1-1-1-1-1-1-1-|


  E E E E E E E E   E E E E E E E E   E E E E E E E E     E E E E E E E E
|-----------------|-----------------|------------------||-----------------|
|-----------------|-----------------|-----------------o||-----------------|
|-----------------|-----------------|------------------||-----------------|
|-1-1-1-1-1-1-1-1-|-3-3-3-3-3-3-3-3-|-3-3-3-3-3-3-3-3--||-5-5-5-5-5-5-5-5-|
|-1-1-1-1-1-1-1-1-|-3-3-3-3-3-3-3-3-|-3-3-3-3-3-3-3-3-o||-5-5-5-5-5-5-5-5-|
|-1-1-1-1-1-1-1-1-|-3-3-3-3-3-3-3-3-|-3-3-3-3-3-3-3-3--||-5-5-5-5-5-5-5-5-|
|
| E E E E E E E E   E E E E E E E E   E E E E E E E E     E E E E E E E E
|-----------------|-----------------|------------------||-----------------|
|-----------------|-----------------|-----------------o||-----------------|
|-----------------|-----------------|------------------||-----------------|
|-1-1-1-1-1-1-1-1-|-3-3-3-3-3-3-3-3-|-3-3-3-3-3-3-3-3--||-5-5-5-5-5-5-5-5-|
|-1-1-1-1-1-1-1-1-|-3-3-3-3-3-3-3-3-|-3-3-3-3-3-3-3-3-o||-5-5-5-5-5-5-5-5-|
|-1-1-1-1-1-1-1-1-|-3-3-3-3-3-3-3-3-|-3-3-3-3-3-3-3-3--||-5-5-5-5-5-5-5-5-|


  E E E E E E E E   E E E E E E E E   E E E E E E E E   E E E E E E E E
|-----------------|-----------------|-----------------|-----------------|
|-----------------|-----------------|-----------------|-----------------|
|-----------------|-----------------|-----------------|-----------------|
|-5-5-5-5-5-5-5-5-|-5-5-5-5-5-5-5-5-|-5-5-5-5-5-5-5-5-|-1-1-1-1-1-1-1-1-|
|-5-5-5-5-5-5-5-5-|-5-5-5-5-5-5-5-5-|-5-5-5-5-5-5-5-5-|-1-1-1-1-1-1-1-1-|
|-5-5-5-5-5-5-5-5-|-5-5-5-5-5-5-5-5-|-5-5-5-5-5-5-5-5-|-1-1-1-1-1-1-1-1-|
|
| E E E E E E E E   E E E E E E E E   E E E E E E E E   E E E E E E E E
|-----------------|-----------------|-----------------|-----------------|
|-----------------|-----------------|-----------------|-----------------|
|-----------------|-----------------|-----------------|-----------------|
|-5-5-5-5-5-5-5-5-|-5-5-5-5-5-5-5-5-|-5-5-5-5-5-5-5-5-|-1-1-1-1-1-1-1-1-|
|-5-5-5-5-5-5-5-5-|-5-5-5-5-5-5-5-5-|-5-5-5-5-5-5-5-5-|-1-1-1-1-1-1-1-1-|
|-5-5-5-5-5-5-5-5-|-5-5-5-5-5-5-5-5-|-5-5-5-5-5-5-5-5-|-1-1-1-1-1-1-1-1-|


                                                               PM--------|
  E E E E E E E E   E E E E E E E E   E E E E E E E E   E E Q  S S S S S S  E
|-----------------|-----------------|-----------------|------------------------|
|-----------------|-----------------|-----------------|--------------------10--|
|-----------------|-----------------|-----------------|------------------------|
|-1-1-1-1-1-1-1-1-|-0-0-0-0-0-0-0-0-|-0-3-3-3-3-3-3-3-|-5-3-5---------------8--|
|-1-1-1-1-1-1-1-1-|-0-0-0-0-0-0-0-0-|-0-3-3-3-3-3-3-3-|-5-3-5--0-0-0-0-0-0-----|
|-1-1-1-1-1-1-1-1-|-0-0-0-0-0-0-0-0-|-0-3-3-3-3-3-3-3-|-5-3-5--0-0-0-0-0-0-----|
|
|                                                              PM--------|
| E E E E E E E E   E E E E E E E E   E E E E E E E E   E E Q  S S S S S S  E
|-----------------|-----------------|-----------------|------------------------|
|-----------------|-----------------|-----------------|--------------------10--|
|-----------------|-----------------|-----------------|------------------------|
|-1-1-1-1-1-1-1-1-|-0-0-0-0-0-0-0-0-|-0-3-3-3-3-3-3-3-|-5-3-5---------------8--|
|-1-1-1-1-1-1-1-1-|-0-0-0-0-0-0-0-0-|-0-3-3-3-3-3-3-3-|-5-3-5--0-0-0-0-0-0-----|
|-1-1-1-1-1-1-1-1-|-0-0-0-0-0-0-0-0-|-0-3-3-3-3-3-3-3-|-5-3-5--0-0-0-0-0-0-----|


       PM                             PM--------|     PM      PM
   +E  E  Q  E E Q    E E Q  E E Q    S S S S S S  Q  E  Q    E E Q  E E Q
|-------------------|---------------|-----------------------|----------------|
|-(10)---10---------|---4-4---------|-------------10----10--|----------------|
|-------------------|---7-7---------|-----------------------|----------------|
|--(8)----8--5-3-5--|--------5-3-5--|--------------8-----8--|--------5-3-5---|
|------0-----5-3-5--|--------5-3-5--|-0-0-0-0-0-0-----0-----|-0------5-3-5---|
|------0-----5-3-5--|--------5-3-5--|-0-0-0-0-0-0-----0-----|-0-0-0--5-3-5---|
|
|      PM                             PM--------|     PM      PM
|  +E  E  Q  E E Q    E E Q  E E Q    S S S S S S  Q  E  Q    E E Q  E E Q
|-------------------|---------------|-----------------------|----------------|
|-(10)---10---------|---4-4---------|-------------10----10--|----------------|
|-------------------|---7-7---------|-----------------------|----------------|
|--(8)----8--5-3-5--|--------5-3-5--|--------------8-----8--|--------5-3-5---|
|------0-----5-3-5--|--------5-3-5--|-0-0-0-0-0-0-----0-----|-0------5-3-5---|
|------0-----5-3-5--|--------5-3-5--|-0-0-0-0-0-0-----0-----|-0-0-0--5-3-5---|


                                                           \0.25
  PM--------|     PM      PM              PM--------|    PM
  S S S S S S  Q  E  Q    E E Q  E E Q    S S S S S S Q  E Q
|-----------------------|---------------|--------------------------|
|-------------10----10--|--------4------|--------------------------|
|-----------------------|----------7----|--------------------------|
|--------------8-----8--|-5-3-5------5--|--------------------------|
|-0-0-0-0-0-0-----0-----|-5-3-5------5--|-0-0-0-0-0-0----0-0-------|
|-0-0-0-0-0-0-----0-----|-5-3-5------5--|-0-0-0-0-0-0-0--0-0-------|
|
|                                                          \0.25____
| PM--------|     PM      PM              PM--------|    PM
| S S S S S S  Q  E  Q    E E Q  E E Q    S S S S S S Q  E Q
|-----------------------|---------------|--------------------------|
|-------------10----10--|--------4------|--------------------------|
|-----------------------|----------7----|--------------------------|
|--------------8-----8--|-5-3-5------5--|--------------------------|
|-0-0-0-0-0-0-----0-----|-5-3-5------5--|-0-0-0-0-0-0----0-0-------|
|-0-0-0-0-0-0-----0-----|-5-3-5------5--|-0-0-0-0-0-0-0--0-0-------|


  +W           +W           +W           +W
|------------|------------|------------|--------*|
|------------|------------|------------|--------*|
|------------|------------|------------|--------*|
|------------|------------|------------|--------*|
|-(0)--------|-(0)--------|-(0)--------|-(0)----*|
|-(0)--------|-(0)--------|-(0)--------|-(0)----*|
|
| +W           +W           +W           +W
|------------|------------|------------|--------*|
|------------|------------|------------|--------*|
|------------|------------|------------|--------*|
|------------|------------|------------|--------*|
|-(0)--------|-(0)--------|-(0)--------|-(0)----*|
|-(0)--------|-(0)--------|-(0)--------|-(0)----*|


Duration Legend
---------------
W - whole; H - half; Q - quarter; E - 8th; S - 16th; T - 32nd; X - 64th; a - acciaccatura
+ - note tied to previous; . - note dotted; .. - note double dotted
Uncapitalized letters represent notes that are staccato (1/2 duration)
Irregular groupings are notated above the duration line
Duration letters will always appear directly above the note/fret number it represents the
duration for.  Duration letters with no fret number below them represent rests.  Multi-
bar rests are notated in the form Wxn, where n is the number of bars to rest for.  Low
melody durations appear below the staff

Tablature Legend
----------------
 h   - hammer-on
 p   - pull-off
 b   - bend
 pb  - pre-bend
 r   - bend release (if no number after the r, then release immediately)
 /\  - slide into or out of (from/to "nowhere")
 s   - legato slide
 S   - shift slide
  - natural harmonic
[n]  - artificial harmonic
n(n) - tapped harmonic
 ~   - vibrato
 tr  - trill
 T   - tap
 TP  - trem. picking
 PM  - palm muting
\n/  - tremolo bar dip; n = amount to dip
 \n  - tremolo bar down
 n/  - tremolo bar up
/n\  - tremolo bar inverted dip
 =   - hold bend; also acts as connecting device for hammers/pulls
 <>  - volume swell (louder/softer)
 x   - on rhythm slash represents muted slash
 o   - on rhythm slash represents single note slash

Misc Legend
-----------
 |  - bar
||  - double bar
||o - repeat start
o|| - repeat end
*|  - double bar (ending)
 :  - bar (freetime)
 $  - Segno
 &  - Coda
Tempo markers -  = BPM(8/16=s8/s16), where s8 = swing 8ths, s16 = swing 16ths
Tap to rate this tab
# A B C D E F G H I J K L M N O P Q R S T U V W X Y Z