Song name
# A B C D E F G H I J K L M N O P Q R S T U V W X Y Z

Our Last Night - Fate Acoustic tab

Our Last Night
Fate (Acoustic Version)

Tuning EADF#AD Capo on 3rd


Riff:

D--0----------------4-0-------------4-------4--0------------|
A---4-------0h4h5-------4--------------4--5------4----------|
F#---3---3------------------3---------5-------------3-------|
D-----4----------------------0h2/4--------------------0h2/4-|
A-----------------------------------------------------------|
E-----------------------------------------------------------|

-4-0---2p0----------------------------4-0----|
----4------4---------4---------4 0h4h5-------|
--------------5---3----3----3-------------7--|
---------------4---------4-------------------|
---------------------------------------------|
---------------------------------------------|
Tap to rate this tab
 
# A B C D E F G H I J K L M N O P Q R S T U V W X Y Z